Blue Oyster Cult - Dont Fear The Reaper Chords & Tabs

 

Dont Fear The Reaper Chords & Tabs

Blue Oyster Cult Chords & Tabs

Version: 1 Type: Bass Tab 2 ratings
1 star 2 stars 3 stars 4 stars 5 stars
comments

Dont Fear The Reaper Bass Tab

   
song: Don't Fear The Reaper
artist: Blue Oyster Cult
tabbed by: Tommy Flores

G:--------------------:     main riff
D:--------------------:
A:--------------------:
E:0-55-0-33-0-11-0-33-:
[ Tab from: http://www.guitartabs.cc/tabs/b/blue_oyster_cult/dont_fear_the_reaper_btab.html ]
G:---------------------------:    middle riff    
D:-----------------------6-5-:
A:-------------------2-5-----:
E:1--3--4--3--1----3---------:

G:-------------------|-----------------------:
D:-------------------|-----------------------:
A:-------------------|--4-5-7-4-----0-3---2-5:
E:0-55-0-33-0-11-0-33|5---------5-1-----3----:
do this part 3 times...then do this until the song ends

Comments