Blue Oyster Cult - Career Of Evil Chords & Tabs

 

Career Of Evil Chords & Tabs

Blue Oyster Cult Chords & Tabs

Version: 1 Type: Tab 0 ratings
1 star 2 stars 3 stars 4 stars 5 stars
comments

Career Of Evil Tab

#----------------------------------PLEASE NOTE--------------------------------#
#This file is the author's own work and represents their interpretation of the#
#song. You may only use this file for private study, scholarship, or research.#
#-----------------------------------------------------------------------------#

Date: Mon, 09 Mar 1998 21:23:22 -0500
From: LeRoy Paluzzi 
Subject: Blue Oyster Cult; Career of Evil


Career of Evil
Blue Oyster Cult

I tabbed the individual bits out first and they correspond with their
respective numbers in the verses below.
[ Tab from: http://www.guitartabs.cc/tabs/b/blue_oyster_cult/career_of_evil_tab.html ]
Bit 1
\---------------------------------------------\
\--5--5--5------------------------------------\
\--5--5--5------------------------------------\
\--5--5--5--------7--6------5-----------------\
\--7--7--7--5--7--------7------7---5----------\
\--5--5--5-----------------------------8--5---\

Bit 2Drum Break
\----------------------------------||-------------\
\-----------------------------7-7-7||-8-8-8-8-8---\
\-----------------------------7-7-7||-7-7-7-7-7---\
\-----------------------------7-7-7||-6-6-6-6-6---\
\--7--7--7--7--7--7--7--7--4--5-5-5||-7-7-7-7-7---\
\--5--5--5--5--5--5--5--5--2-------||-------------\

Bit 3
\-------------\
\--5-5-5-7----\
\--5-5-5-7----\
\--5-5-5-7----\
\--7-7-7-5----\
\--5-5-5------\

Bit 4
\---3--3--3--2--2--7----\
\---3--3--3--3--3--7----\
\---4--4--4--4--4--7----\
\---5--5--5--4--4--7----\
\---5--5--5--2--2--5----\
\---3--3--3-------------\

Bit 5
\---------------\
\--5-5-5-7-7-7--\
\--5-5-5-7-7-7--\
\--5-5-5-7-7-7--\
\--7-7-7-5-5-5--\
\--5-5-5--------\

Bit 6
\------------------\
\------------------\
\------------------\
\--7--6-----5------\
\--------7-----5---\
\-----------------5\
Comments