Blue Oyster Cult - Astronomy Chords & Tabs

 

Astronomy Chords & Tabs

Blue Oyster Cult Chords & Tabs

Version: 2 Type: Tab 0 ratings
1 star 2 stars 3 stars 4 stars 5 stars
comments

Astronomy Tab

Band - Blue Oysters Cult
Song - Astronomy (Solo)

Key:
b - bend
h - hammer-on
p - pull-off


e|-----------------------------------------------------------------------------------|
B|------5---5-5-8p5-7p5--------------------------------------------------------------|
G|--5b7---7-------------7-4h7-----------------7-------------14-12-14b16-14-12h14p12--|
D|----------------------------9-7---------7-9---9-7----------------------------------|
A|--------------------------------10-9-10-----------7-7-7-7--------------------------|
E|-----------------------------------------------------------------------------------|
[ Tab from: http://www.guitartabs.cc/tabs/b/blue_oyster_cult/astronomy_tab_ver_2.html ]
e|-----------------------------------------------------------------------------------|
B|-------12----------15-12----------------------------------------8-----10----12-----|
G|----14----14-12-14-------14-12----------------------------------10b12-12b14-14b16--|
D|-14----------------------------14-12----------------------12-14--------------------|
A|-------------------------------------14-13-12----12-13-14--------------------------|
E|----------------------------------------------15-----------------------------------|

e|---------------12-------------------14-15-14-12----12-------15p12------------------|
B|------------------15-12h15p12----15-------------15----15-12-------15p12------------|
G|--14-12-------------------p---14----------------------------------------14p12--14--|
D|--------14-14----------------------------------------------------------------------|
A|-----------------------------------------------------------------------------------|
E|-----------------------------------------------------------------------------------|

e|---------------------------------------------------------------------|
B|---------------------------------------------------------------------|
G|-------12-------11-12-11h12p11----11---------------------------------|
D|--14------14-14----------------14----14-12-------------------14-14-14|
A|-------------------------------------------14-13-12------------------|
E|----------------------------------------------------15-12-12---------|
Comments