Blue October - Weight Of The World Live Chords & Tabs

 

Weight Of The World Live Chords & Tabs

Blue October Chords & Tabs

Version: 1 Type: Tab 0 ratings
1 star 2 stars 3 stars 4 stars 5 stars
comments

Weight Of The World Live Tab

Blue October
Weight Of The World
Argue With A Tree


E-----------------------------------------------------------------|
B---0---0---0---0---0---0---0---0---0---0---0---0---0---0---0---0-|
G-----------------------------------------------------------------|
D-----------------0---0---0---0-----------------------------------|
A---------------------------------0---0---0---0---0---0---0---0---|
E-3---3---3---3---------------------------------------------------|
I black out in the room again. A busted lip and broken skin.

[There's voices there to dare me. My father's here to scare me.]

E-----------------------------------------------------------------|
B---0---0---0---0---0---0---0---0---0---0---0---0---0---1---1---0-|
G-----------------------------------------------------------------|
D-----------------0---0---0---0-----------------------------------|
A---------------------------------0---0---0---0---0---0---0---0---|
E-3---3---3---3---------------------------------------------------|
I wake up in the bathroom and dare not bother asking why the
mirror's cracked and all I see are shards of glass inside of me.

[My mother sits beyond the door. She's curled up crying on the floor.
Look at what her son's done when the weight of all the worlds gone]

E-----------------------------------------------------------------|
B---0---0---0---0---0---0---0---0---0---0---0---0---0---0---0---0-|
G-----------------------------------------------------------------|
D-----------------0---0---0---0-----------------------------------|
A---------------------------------0---0---0---0---0---0---0---0---|
E-3---3---3---3---------------------------------------------------|
Wrong... It's gone wrong again. Gone f***ing

E-----------------------------------------------------------------|
B---0---0---0---0---0---0---0---0---0---0---0---0---0---1---1---0-|
G-----------------------------------------------------------------|
D-----------------0---0---0---0-----------------------------------|
A---------------------------------0---0---0---0---0---0---0---0---|
E-3---3---3---3---------------------------------------------------|
Wrong... It's gone wrong again...

E-----------------------------------------------------------------|
B---0---0---0---0---0---0---0---0---0---0---0---0---0---0---0---0-|
G-----------------------------------------------------------------|
D-----------------0---0---0---0-----------------------------------|
A---------------------------------0---0---0---0---0---0---0---0---|
E-3---3---3---3---------------------------------------------------|
Well liars they leave a guilty trail. Well let you tell you somethin
people. I've been lying for f***ing years.

[Disregarding that I've created these monsters. They're on f***ing
both of my sides. So I wipe the blood from both of their eyes.]

E-----------------------------------------------------------------|
B---0---0---0---0---0---0---0---0---0---0---0---0---0---1---1---0-|
G-----------------------------------------------------------------|
D-----------------0---0---0---0-----------------------------------|
A---------------------------------0---0---0---0---0---0---0---0---|
E-3---3---3---3---------------------------------------------------|
That must be why I'm standing in this space.

[From all four of their eyes.]
[ Tab from: http://www.guitartabs.cc/tabs/b/blue_october/weight_of_the_world_live_tab.html ]
E-----------------------------------------------------------------|
B---0---0---0---0---0---0---0---0---0---0---0---0---0---0---0---0-|
G-----------------------------------------------------------------|
D-----------------0---0---0---0-----------------------------------|
A---------------------------------0---0---0---0---0---0---0---0---|
E-3---3---3---3---------------------------------------------------|
And while I wait for wounds to heal I see you by the window sill.
Your hearts torn out a plastic when honesty lit up that room.
So I stole the pillow case to clean this mess I've made of someones
dream. Now you see what I've done! When the weight of all the worlds gone

E-----------------------------------------------------------------|
B---0---0---0---0---0---0---0---0---0---0---0---0---0---0---0---0-|
G-----------------------------------------------------------------|
D-----------------0---0---0---0-----------------------------------|
A---------------------------------0---0---0---0---0---0---0---0---|
E-3---3---3---3---------------------------------------------------|
Wrong... It's gone wrong again. Gone f***ing

E-----------------------------------------------------------------|
B---0---0---0---0---0---0---0---0---0---0---0---0---0---1---1---0-|
G-----------------------------------------------------------------|
D-----------------0---0---0---0-----------------------------------|
A---------------------------------0---0---0---0---0---0---0---0---|
E-3---3---3---3---------------------------------------------------|
Wrong... It's gone all wrong again...

E-----------------------------------------------------------------|
B---0---0---0---0---0---0---0---0---0---0---0---0---0---0---0---0-|
G-----------------------------------------------------------------|
D-----------------0---0---0---0-----------------------------------|
A---------------------------------0---0---0---0---0---0---0---0---|
E-3---3---3---3---------------------------------------------------|
This room is old and wise. I fall onto the bed and wonder, how did
I get here? The little boy who'd argue with a tree.

E-----------------------------------------------------------------|
B---0---0---0---0---0---0---0---0---0---0---0---0---0---1---1---0-|
G-----------------------------------------------------------------|
D-----------------0---0---0---0-----------------------------------|
A---------------------------------0---0---0---0---0---0---0---0---|
E-3---3---3---3---------------------------------------------------|
Just f***ing thump his head! He'll turn back to normal. Now why
is that what I see? Don't bother

E-----------------------------------------------------------------|
B---0---0---0---0---0---0---0---0---0---0---0---0---0---0---0---0-|
G-----------------------------------------------------------------|
D-----------------0---0---0---0-----------------------------------|
A---------------------------------0---0---0---0---0---0---0---0---|
E-3---3---3---3---------------------------------------------------|
trusting... Don't bother waiting... Don't bother changing
things that won't give into changing.

E-------------------------------------------------------------------|
B---0---0---0---0---0---0---0---0---0---0---0---0---0---1---1---0---|
G-------------------------------------------------------------------|
D-----------------0---0---0---0-------------------------------------|
A---------------------------------0---0---0---0---0---0---0---0-----|
E-3---3---3---3---------------------------------------------------3-|
Just let me go away. I'm packed whenever. I'm down. Whenever...

Questions?
Email at cory.roesch@yahoo.com
Comments