Blue October - Angel Chords & Tabs

 

Angel Chords & Tabs

Blue October Chords & Tabs

Version: 1 Type: Tab 0 ratings
1 star 2 stars 3 stars 4 stars 5 stars
comments

Angel Tab

                                  Blue October
                                      Angel
                              Consent To Treatment

This song has to be my favorite blue october song. All are good.

Standard Tuning

Updated: 8/28/08

Intro:
e------------------|
b------------------|
g------------------|
d--2---5---9---4---|
a--2---5---9---4---|
e--0---3---7---2---|

e------------------------|
b------------------------|
g------------------------|
d--2---5---9---4--4--4---|
a--2---5---9---4--4--4---|
e--0---3---7---2--2--2---|
[ Tab from: http://www.guitartabs.cc/tabs/b/blue_october/angel_tab.html ]
Verse 1: ()=1st time only
e--------------(3)----(3)----(3)-|
b--------------(3)----(3)----(3)-|
g--------------(3)----(3)----(3)-|
d--12--4--9--5----(5)-----(5)----|
a--12--4--9--5----(5)-----(5)----|
e--10--2--7--3----(3)-----(3)----|

Chorus:
e----------------|
b----------------|
g----------------|
d--12--4--9--5---|
a--12--4--9--5---|
e--10--2--7--3---|

Verse 2: same as verse 1

Break:
e---------------------------|
b---------------------------|
g---------------------------|
d--2--5--5--7--9--4--4--4---|
a--2--5--5--7--9--4--4--4---|
e--0--3--3--5--7--2--2--2---|

Verse 3:
e----------------------|
b----------------------|
g----------------------|
d--12--12----12---12---|
a--12--12----12---12---|
e--10--10----10---10---|

Outro: upstroke
e------|
b------|
g--4---|
d--4---|
a--2---|
e------|

Intro-----2x
Verse 1---4x
Chorus----2x
Verse 2---2x
Chorus----2x
Break-----3x
Verse 3---1x
Chorus----2x
Outro-----1x

Any Questions? Email Me At Coldfry1@aol.com
Comments