Blue October - 18th Floor Balcony Chords & Tabs

 

18th Floor Balcony Chords & Tabs

Blue October Chords & Tabs

Version: 5 Type: Tab 0 ratings
1 star 2 stars 3 stars 4 stars 5 stars
comments

18th Floor Balcony Tab

Blue October
18th Floor Balcony
Album: Foiled
Capo Fret 2

I remember trying to find this tab but i could not to save my life so i decided to tab 
it myself :). I know this 99% right because i played through the song while playing this 
many times. If you find an error please tell me and i will fix it. Have fun :)!!!


Song Structure: Intro, Verse 1, Verse 2, Chorus, Verse 1(x4), Verse 3, Chorus,Verse 4, 
Bridge, Little solo, Chorus, Chorus 2, Verse 1, Verse 2, Ending!!!

		Intro
e:|------------------------------------|
B:|---0-1----3----3----3---0-1---0-1--0|
G:|---------0----0----0-------------0--|
D:|--2---------------2----2-----2----2-|
A:|-0------2----2---3----0-----0-------|
E:|-------3----0-----------------------|

		Verse 1
e:|----------------------------------|
B:|----3-------3-------3-------0-1--0|
G:|-----0-0-----0-0---0-0-0-------0--|
D:|---0--0----0--0---2---2----2----2-|
A:|--2-------2------3--------0-------|
E:|-3-------0------------------------|

		Verse 2
e:|-------------------------------------------|
B:|----3-------3-------3-------0-1------0-1---|
G:|-----0-0-----0-0---0-0-0-------0-0------0-0|
D:|---0--0----0--0---2---2----2----2---2----2-|
A:|--2-------2------3--------0--------0-------|
E:|-3-------0---------------------------------|

		Verse 3
e:|----------------------------------|
B:|----3-------3-------3-------0-1---|
G:|-----0-0-----0-0---0-0-0-------0-0|
D:|---0--0----0--0---2---2----2----2-|
A:|--2-------2------3--------0-------|
E:|-3-------0------------------------|

		Chorus
e:|---------------------------------------|
B:|----1h3-------1h3------0-1------0-1----|
G:|---0---0-0---0---0-0------0-0------0-0-|
D:|--2-----2---0-----0---2----2---2----2--|
A:|-3---------2---------0--------0--------|
E:|---------------------------------------|
[ Tab from: http://www.guitartabs.cc/tabs/b/blue_october/18th_floor_balcony_tab_ver_5.html ]
e:|---------------------------------------|
B:|----1h3-------1h3------0-1------0-1--0-|
G:|---0---0-0---0---0-0------0-0------0---|
D:|--2-----2---0-----0---2----2---2----2--|
A:|-3---------2---------0--------0--------|
E:|---------------------------------------|

		Verse 4
e:|------------2-------3-------3----|
B:|----3--------3-3-----3-3-----3-0-|
G:|-----0-0------0----0--0----0--0--|
D:|---0--0----0------2-------2------|
A:|--2-------2------3-------3-------|
E:|-3-------0-----------------------|

		Bridge
e:|-----------------------------------0--|
B:|----0h1-------0h1-------0h1-----3-3-3-|
G:|---0---0-0---0---0-0---0---0-0--------|
D:|--2-----2---0-----0---2-----2--0-0----|
A:|-0---------2---------3----------------|
E:|--------------------------------------|

e:|-------------------------|
B:|----1-------1-------1--3-|
G:|---0-0-0---0-0-0---0-0---|
D:|--2---2---0---0---2---2--|
A:|-0-------2-------3-------|
E:|-------------------------|

		Little solo
e:|-------------------------------------|
B:|-(8-8-12-13-12)x3--15-13-12----------|
G:|---------------------------12--------|
D:|-----------------------------12-10-9-|
A:|-------------------------------------|
E:|-------------------------------------|

e:|-------------------------------15-|
B:|-(8-8-12-13-12)x3--13/15-15(x6)---|
G:|----------------------------------|
D:|----------------------------------|
A:|----------------------------------|
E:|----------------------------------|

		Chorus 2
e:|---------------------------------------|
B:|----1h3-------1h3------0-1------0-1----|
G:|---0---0-0---0---0-0------0-0------0-0-|
D:|--2-----2---0-----0---2----2---2----2--|
A:|-3---------2---------0--------0--------|
E:|---------------------------------------|

e:|----------------------------------3-|
B:|----1h3-------1h3------0-1--0h1p0---|
G:|---0---0-0---0---0-0------0---------|
D:|--2-----2---0-----0---2-------------|
A:|-3---------2---------0--------------|
E:|------------------------------------|

		Ending
e:|--------------------|
B:|---0-1--------(0-1)-|
G:|------0-0-----------|
D:|--2----2---(2)------|
A:|-0--------0---------|
E:|--------------------|
Comments