Blue October - 18th Floor Balcony Chords & Tabs

 

18th Floor Balcony Chords & Tabs

Blue October Chords & Tabs

Version: 3 Type: Tab 0 ratings
1 star 2 stars 3 stars 4 stars 5 stars
comments

18th Floor Balcony Tab

standard tuning

Intro:
e: --------------------0-------------0------------0-------------------------|
B: -------3---------------------------------------------------3-------------|
G: -----2------------2-------------2------------2-----------2---------------|
D: ---2------------2-------------2------------2-----------2-----------------|
A: -0---------------------------------------5-----------2-------------------|
E: -------------4-------------2---------------------------------------------|

intro(continued):
e: ---------------------|
B: -------3-------2-----|
G: -----2---2---2-------|
D: ---2-------2---------|
A: -2-------------------|
E: ---------------------|

this x2
e: -------0---------------0---------------0---------------------------------|
B: ------------------------------------------------------3------------------|
G: -----2---2---2-------2---2---2-------2---2---2------2---2---2------------|
D: ---2-------2-------2-------2-------2-------2------2-------2--------------|
A: -0------------------------------5---------------2------------------------|
E: ----------------4--------------------------------------------------------|

continued (only on second time)
e: ---------------------|
B: -------3-------------|
G: -----2---2---2-------|
D: ---2-------2---------|
A: -2-------------------|
E: ---------------------|


e: ----------------------------0--------------------------------------------|
B: ----------3h5--------------------------------3----------------3-------2--|
G: --------2-----2---2-------2---2---2--------2---2---2--------2---2---2----|
D: ------2---------2-------2-------2--------2-------2--------2-------2------|
A: -4--5-----------------4----------------2----------------2----------------|
E: -------------------------------------------------------------------------|

this x5
e: -------0---------------0---------------0---------------------------------|
B: ------------------------------------------------------3-------2----------|
G: -----2---2---2-------2---2---2-------2---2---2------2---2---2------------|
D: ---2-------2-------2-------2-------2-------2------2-------2--------------|
A: -0------------------------------5---------------2------------------------|
E: ----------------4--------------------------------------------------------|

[ Tab from: http://www.guitartabs.cc/tabs/b/blue_october/18th_floor_balcony_tab_ver_3.html ]
this x2
e: ----------------------------0--------------------------------------------|
B: ----------3h5--------------------------------3----------------3-------2--|
G: --------2-----2---2-------2---2---2--------2---2---2--------2---2---2----|
D: ------2---------2-------2-------2--------2-------2--------2-------2------|
A: -4--5-----------------4----------------2----------------2----------------|
E: -------------------------------------------------------------------------|


this
e: -------0---------------0---------------0---------------------------------|
B: ------------------------------------------------------3------------------|
G: -----2---2---2-------2---2---2-------2---2---2------2---2----------------|
D: ---2-------2-------2-------2-------2-------2------2-------2--------------|
A: -0---------------4--------------5---------------5------------------------|
E: -------------------------------------------------------------------------|


this x2
e: ----------4--------------4----------------4----------------2-------------|
B: ----------5--------------5----------------5----------------3-------------|
G: -------------------------------------------------------------------------|
D: -------------------------------------------------------------------------|
A: -0--------------4---------------5------------------2---------------------|
E: -------------------------------------------------------------------------|

this x4 (you can figure out the strumming yourself here)
e: ----------4--------------4----------------2-2--------------2-22----------|
B: ----------5--------------5----------------3-3--------------3-33----------|
G: -------------------------------------------------------------------------|
D: -------------------------------------------------------------------------|
A: -5--------------4---------------2------------------2---------------------|
E: -------------------------------------------------------------------------|

e: -------0---------------0---------------0---------------------------------|
B: ------------------------------------------------------3-------2----------|
G: -----2---2---2-------2---2---2-------2---2---2------2---2---2------------|
D: ---2-------2-------2-------2-------2-------2------2-------2--------------|
A: -0------------------------------5---------------2------------------------|
E: ----------------4--------------------------------------------------------|


ok im pretty sure thats all the parts and im getting tired...so ill just leave it at 
its missing like 5 seconds for the ending but its just the end of the intro again.  the end 
be a little off cuz i didnt feel like doin it anymore... ill probably go back in later and update it...
Comments