Blue Merle - Lucky To Know You Chords & Tabs

 

Lucky To Know You Chords & Tabs

Blue Merle Chords & Tabs

Version: 1 Type: Tab 0 ratings
1 star 2 stars 3 stars 4 stars 5 stars
comments

Lucky To Know You Tab

   
Lucky to Know You - Blue Merle

Tabbed by: Steven Wiercinski

Intro
=====
This is strummed pretty much throughout the song

--5---5-5--5-5-5-|
--3---3-5--3-3-3-|
--2---2-2--2-2-2-|
-----------------|
-----------------|
-----------------|

Verse
=====
----------------------------------------<12>---|
-----------------------------------------------|
-----<7>---------------------------------------|
--------------------<7>------------------------|
-----------------------------------------------|
-----------------------------------------------|
Friday morning all alone

--2---5----------|
--3---3----------|
--2---0----------|
-----------------|
-----------------|
-----------------|
One by one the stars have said goodbye
Yeah pictures in a thousand words
1000 miles turning in the sun

[ Tab from: http://www.guitartabs.cc/tabs/b/blue_merle/lucky_to_know_you_tab.html ]
Chorus
======
--2---5---2---5--------------------------------|
--3---3---3---0--------------------------------|
--2---0---2---2--------------------------------|
-----------------------------------------------|
-----------------------------------------------|
-----------------------------------------------|
And I want you to know
I feel lucky to know you
God open my heart
And you see that it's true

I want yoy to know
I feel lucky to know you
I feel lucky to know you

Sun faded into fall
Winter came the writing on the wall
So I sent a thousand letters off
The backs of silver angels through the sky

And I want you to know
I feel lucky to know you
God open my heart
And you see that it's true

I want yoy to know
I feel lucky to know you
I feel lucky to know you

Break
=====
  FmaJ7
---0------0-----0-----0--------------------------|
---1------1-----1-----1--------------------------|
---2------0-----0-----0--------------------------|
---3------2-----1-----0--------------------------|
-------------------------------------------------|
-------------------------------------------------|
I took a drive it's what I do
And wrote another song for you
The things we want
The things we crave
We have no choice
The choice is made


Legend:
=======
<5> Harmonics
Comments