Blue Man Group - Current Chords & Tabs

 

Current Chords & Tabs

Blue Man Group Chords & Tabs

Version: 1 Type: Tab 0 ratings
1 star 2 stars 3 stars 4 stars 5 stars
comments

Current Tab

   
----------------------------------------------------------------------------
			     The Current - The Blue Man Group              
-----------------------------------------------------------------------------

The Blue Man Group is an awesome band. They have shows in Las Vegas, Chicago, New York,
and Berlin. The Current is off of their newest album, "The Complex." I highly recommend
buying their concert DVD, It is amazing!

Tabbed by: bigmatt25

Tuning: standard

This is basically it, I just could get the chords during the chorus. Sound excellent!
[ Tab from: http://www.guitartabs.cc/tabs/b/blue_man_group/current_tab.html ]
Drums: (for guitar, repeats)
e|-------------------------------------------------------------------------|
B|-------------------------------------------------------------------------|
G|-------------------------------------------------------------------------|
D|-------------------------------------------------------------------------|
A|-------------------------------------------------------------------------|
E|-5/7--7-7-8-5-5/7--7-7-8-5-----------------------------------------------|

Riff: (repeats)

e|-------------------------------------------------------------------------|
B|-------------------------------------------------------------------------|
G|-------------------------------------------------------------------------|
D|-7/9--9-9-10-7-7/9--9-9-10-7---------------------------------------------|
A|-7/9--9-9-10-7-7/9--9-9-10-7---------------------------------------------|
E|-5/7--7-7-8--5-5/7--7-7-8--5---------------------------------------------|

| /  slide up
| \  slide down
| h  hammer-on
| p  pull-off
| ~  vibrato
| +  harmonic
| x  Mute note
============================================================================
Comments