Blue Flannel - Havin A Bad Day Chords & Tabs

 

Havin A Bad Day Chords & Tabs

Blue Flannel Chords & Tabs

Version: 1 Type: Tab 0 ratings
1 star 2 stars 3 stars 4 stars 5 stars
comments

Havin A Bad Day Tab

Most people probably dont know this song but if anyone has seen Bubble Boy its on it.

Intro:

E----------------------------------------------------------:
B----------------------------------------------------------:
G-----5-------5--------------------------------------------:
D---5---5---5---5-----5-------5-------3-------3------------:
A-3-------3---------5---5---5---5---3---3---3---3---(x6)---:
E-----------------3-------3-------1-------1----------------:

Chorus:
[ Tab from: http://www.guitartabs.cc/tabs/b/blue_flannel/havin_a_bad_day_tab.html ]
E----------------------------------------------------------:
B----------------------------------------------------------:
G-5-5-5--5--5555-------------------------------------------:
D-5-5-5--5--5555-5--------------3--------------------------:
A-3-3-3--3--3333-5-(same-thing)-3-(same-thing)-------------:
E----------------3--------------1--------------------------:
                       (back to intro)

Ending

E----------------------------------------------------------:
B----------------------------------------------------------:
G-5--------------------------------------------------------:
D-5-(x16)-5-------3----------------------------------------:
A-3-------5-(x16)-3-(x16)-----(play-ending-x10-I-think)----:
E---------3-------1----------------------------------------:
Comments