Blue - If You Come Back Chords & Tabs

 

If You Come Back Chords & Tabs

Blue Chords & Tabs

Version: 1 Type: Tab 0 ratings
1 star 2 stars 3 stars 4 stars 5 stars
comments

If You Come Back Tab

"If you come back" by Blue

For Intro.  Also for  Verses, Refrain and Chorus except last line.

E------------------------------------------------------------------------------------------------------------
B------------------------------------------------------------------------------------------------------------
G-------------------------------------------------------8---------------8-------------------10------------
D------------------8--------------------7--------8---------------8------------------10-----------10----
A-------------8--------------------8--------6---------------6---------------6/8--------------------------
E-------6---------------6----5------------------------------------------------------------------------------
[ Tab from: http://www.guitartabs.cc/tabs/b/blue/if_you_come_back_tab.html ]
Last line of verses, refrain and chorus 
(i've been tryin' to find...) (Coz I don"t want this love...) (Oh yes you are...) 
E------------------------------------------------------------------------------------------------------------
B------------------------------------------------------------------------------------------------------------
G------------------------------------------------------------8--------------8-------------------10---------
D--------------------5--------------------- 3---------8---------------8-----------------10-----------10-
A--------------5---------------------- 3---------6---------------6--------------6/8-----------------------
E-------3------------------3-----1--------------------------------------------------------------------------

Guitar tab by miguel resurreccion (hello_miggy@yahoo)
This is my first tab.  Enjoy!!!

Comments