Blue - Breath Easy Chords & Tabs

 

Breath Easy Chords & Tabs

Blue Chords & Tabs

Version: 1 Type: Chords 0 ratings
1 star 2 stars 3 stars 4 stars 5 stars
comments

Breath Easy Chords

   
artist:blue
song:breath easy
transcribed by:saeed nikoo
-------------------------------------------------------------------------------------------------Am
Cruel to the eye
          G                Dm     
I see the way he makes you smile
Am
Cruel to the eye
             G                    Dm 
Watching him hold what used to be mine
          Am
Why did I lie?
           G            Dm
What did I walk away to find
          Dm            Am
Oooohhh...why...oooh -- why...

CHORUS
Am                  G
I.... can't breathe easy
      F
Can't sleep at night
     C
Till you're by my side
   Am                  G
No I ... can't breathe easy
        G                 Dm      
I can't dream yet another dream
        G                 Dm 
Without you lying next to me
           G
There's no air....
         Am
Curse me inside
          G                       Dm
For every word that caused you to cry ...
[ Tab from: http://www.guitartabs.cc/tabs/b/blue/breath_easy_crd.html ]
(OTHER'S THE SAME CHORDES)
Curse me inside
I won't forget, no i won't baby i
don't know why (don't know why)
I left the one i was looking to find
Ooh -- why...ooooh, why -- why... 
I.... can't breathe easy
Can't sleep at night
Till you're by my side
No I.... can't breathe easy (breathe easy)
I can't dream yet another dream
Without you lying next to me
There's no air....
no I.... can't breathe easy (can't breathe easy)
I can't dream yet another dream
Without you lying next to me
There's no air....

 
      G        Dm                                         G
   e--3---------1-----------1-----------1-----------1-----------3-----------3------------------
   B--3-------3---3-------3---3-------3---3-------3---3-------3---3-------3--------------------
   G--4-----2-------2---2-------2---2-------2---2-------2---4-------4---4----------------------
   D------0-----------0-----------0-----------0-----------5-----------5------------------------
   A-------------------------------------------------------------------------------------------
   E-------------------------------------------------------------------------------------------
      Out mind              noting sense anymore    I     back  life   
      of                    make                    want  in
      my                                            you   my
                            

that's what I'm breasing for

Dm     Am                  G     
ahhhh  aahh ahhh ahhh ahhh ahhh aahh

-------------------------------------------------------------------------------------------------
There might be some mistakes in chords,let me know if u know the true ones,
my e-mail adress:airsaeed_23@yahoo.com

I hope u enjoy the song,I wanna dedicate it to my family and my friends specialy airin and mehrdad.
Comments