Bloodsimple - Flatlined Chords & Tabs

 

Flatlined Chords & Tabs

Bloodsimple Chords & Tabs

Version: 1 Type: Tab 0 ratings
1 star 2 stars 3 stars 4 stars 5 stars
comments

Flatlined Tab

Bloodsimple-Flatlined 

These guys just came out so thats cool

Key:
~ = hand vibrate
Pause = pause (string - fret) 

I think this is a close tab but you can rate it
[ Tab from: http://www.guitartabs.cc/tabs/b/bloodsimple/flatlined_tab.html ]
Muted with Chorus and Flange                
E|-------------------------------------------------------------------|
B|--------15---13---15-----~~~-----------15---13---15------~~~-------|
G|--12---------------------15---12-------------------------14--------|
D|-------------------------------------------------------------------|
A|-------------------------------------------------------------------|
E|-------------------------------------------------------------------|
      
                        Pause (G-15)
E|--------------------------------------------------------------------|
B|---------15---13---15-----------------------------------------------|
G|---12---------------------15---14---12------------------------------|
D|--------------------------------------------------------------------|
A|--------------------------------------------------------------------|
E|--------------------------------------------------------------------|

Sorry but this was all I could figure out but its pretty much the same
through out the song try it with new effects but it sounds best with
Comments