Bloodshot - Interigation Chords & Tabs

 

Interigation Chords & Tabs

Bloodshot Chords & Tabs

Version: 1 Type: Tab 0 ratings
1 star 2 stars 3 stars 4 stars 5 stars
comments

Interigation Tab

INTRO.
1.)---------------------------------------------------
2.)--------------------------------------------------
3.)-------2-----------2----------2---------------
4.)-----2---2------2----2-----0-----0-----------
5.)--0----------------------------------------------
6.)-------------3-----------2-----------1---0----
clean
[ Tab from: http://www.guitartabs.cc/tabs/b/bloodshot/interigation_tab.html ]
Verse.
1.)----------------------------------------------------------------------
2.)-----------------------------------------------------------------------
3.)-----------------------------------------------------------------------
4.)-----------------------------------------------------------------------
5.)---0--2--3--2--------2--3--2------2--3--2------2--3--2-----------
6.)-------------------3------------0-----------1--------------------
1st time Clean. 2nd time with distortion and slitely faster.

Chorus.
1.)---------------------------------------------------------------------------------------------
2.)---------------------------------------------------------------------------------------------
3.)----------------------------------------------------------------------------------------------
4.)----7---7--7----5--5--5----2--2--2----3--3--3---------------------------------------
5.)----7---7--7----5--5--5----2--2--2----3--3--3-----------------------------------------
6.)----5---5--5----3--3--3----0--0--0----1--1--1-------------------------------------------
Distortion

Rock on metal heads. BloodShot!!
Comments