Bloodshot - Interigation Chords & Tabs

 

Interigation Chords & Tabs

Bloodshot Chords & Tabs

Version: 1 Type: Bass Tab 0 ratings
1 star 2 stars 3 stars 4 stars 5 stars
comments

Interigation Bass Tab

BloodShot - Interigation.
Bass line
Standard Tuneing

Guitar plays first two times
INTRO:
1.)---------------------------------------------------
2.)---------------------------------------------------
3.)---------------------------------------------------
4.)----5-5-5-5---3-3-3-3----2-2-2-2---1-0------------
2x.

[ Tab from: http://www.guitartabs.cc/tabs/b/bloodshot/interigation_btab.html ]
Verse + Guitar solo:
1.)--------------------------------------------------------------
2.)--------------------------------------------------------------
3.)---0--0--0----------------------------------------------------
4.)---------------3--3--3---0--0--0----1--1--1-------------------


Chorus: 

1.) --------------------------
2.) --------------------------
3.) --------------------------
4.) 5-5---3-3---0-0-0---1-1-1-
Comments