Bloodlined Calligraphy - Trying To Collect Child Support From Ghost Dad Chords & Tabs

 

Trying To Collect Child Support From Ghost Dad Chords & Tabs

Bloodlined Calligraphy Chords & Tabs

Version: 1 Type: Tab 0 ratings
1 star 2 stars 3 stars 4 stars 5 stars
comments

Trying To Collect Child Support From Ghost Dad Tab

Guitar 1-DADGBE
Guitar 2-DADGBE


pm-------- |palm mute
h--------- |hammer on
p--------- |pulloff
x--------- |stop note
b--------- |bend/slow vibrato type thingy


Intro
Guitar 1

e--------------------------------------------------------------------------------------|
b--------------------------------------------------------------------------------------|
g--------------------------------------------------------------------------------------|
d--------------------------------6-5-3h5p5----------------------------------8-6-5h6p5--|
a-----6-5-6-8-6-5h6p5-------6-5-6-------------6p5h6p5-6p5h6p5h6p5-6p5h6p5------------6-|
d--0-0---------------8---0-0--------------6--------------------------------------------|

pm . .                   . .


Guitar 2

e--------------------------------------------------------------------------------------|
b--------------------------------------------------------------------------------------|
g--------------------------------------------------------------------------------------|
d--0x---------------------0x-------------------8-------------------8x------------------|
a--0x---------------------0x-------------------8-------------------8x------------------|
d--0x---------------------0x---------8-8-8-8-8-8-------------------8x------------------|

pm                                   . . . . .


Verse
Guitar1

e---------------------------------------------------------------------------------------|
b---------------------------------------------------------------------------------------|
g---------------------------------------------------------------------------------------|
d----------------------------------------------------------------------------8-6-5h6p5--| x2
a-----6-5-6-8-6-5h6p5-------6-5-6-8-6-5h6p5----6p5h6p5-6p5h6p5h6p5-6p5h6p5------------6-|
d--0-0---------------8---0-0---------------8--------------------------------------------|

pm . .                   . .


e---------------------------------------------------------------------------------------|
b-----6-5-6-8-6-5h6p5-------6-5-6-8-6-5h6p5---------------------------------------------|
g--------------------6---------------------6--------------------------------------------|
d----------------------------------------------------------------------------8-6-5h6p5--| x2
a----------------------------------------------6p5h6p5-6p5h6p5h6p5-6p5h6p5------------6-|
d--0-0-------------------0-0------------------------------------------------------------|

pm . .                   . .

Guitar 2

e---------------------------------------------------------------------------------------|
b---------------------------------------------------------------------------------------|
g---------------------------------------------------------------------------------------|
d--0x---------------------0x-------------------8x------------------8x-------------------| x4
a--0x---------------------0x-------------------8x------------------8x-------------------|
d--0x---------------------0x-------------------8x------------------8x-------------------|


Chorus
Guitar 1
[ Tab from: http://www.guitartabs.cc/tabs/b/bloodlined_calligraphy/trying_to_collect_child_support_from_ghost_dad_tab.html ]
e----------------------------------------------------------------------------------------------------|
b-----------------------------------6p5h6p5h6p5h6p5h6p5h6p5h6p5h6p5-6p5h6p5h6p5h6p5h6p5h6h8p6p5h6p5--|
g----------------------------------------------------------------------------------------------------|
d----------------------------------------------------------------------------------------------------| x4
a----------------------------------------------------------------------------------------------------|
d----------------------------------------------------------------------------------------------------|
                       								       		       ^
Guitar 2                                                                     Guitar 1                  |
                                                                                                       |
e------------------------------------------------------------------------    |---------               -- |
b------------------------------------------------------------------------    |--5h6p5-- Listen For this- |
g------------------------------------------------------------------------    |--------- after this------ |
d--0--------0---------1-0---------1-0------------------------------1----- x4 |-------------------------- |
a--0--------0---------1-0---------1-0------------------------------1-----    |-------------------------- | It is quiet.

pm    . . .   . . . .     . . . .


Solo/Verse 2
Guitar 1

e-------------------------------------|
b-------------------------------------|
g-------------------------------------| x8 : First 6 fast, last
d--0----------------------------------|      2 slow down a little.
a--0----5h7p5---8p6h8---5h7p6--8p6----|
d--0-0-0-----0-0-----0-0-----0----6h8-|

pm   . .     . .     . .     .

Guitar 2

e-------------------------------------|
b-------------------------------------|
g-------------------------------------| x8 : First 6 fast, last
d--0----------------------------------|      2 slow down a little.
a--0----------------------------------|
d--0-0-0-----0-0-----0-0-----0--------|

pm   . .     . .     . .     .


Chorus Ending
Guitar 1

e------19b(21)------------------------------|
b-------------------------------------------|
g-------------------------------------------|
d-------------------------------------------|
a-------------------------------------------|
d-------------------------------------------|

Guitar 2

e-------------------------------------------|
b-------------------------------------------|
g-------------------------------------------|
d--0------------------0---------------------|
a--0------------------0---------------------|
d--0--------------0-0-0-----------------0-0-|

pm                . .                   . .

Guitars 1&2

e-----------------------------------------|
b-----------------------------------------|
g-----------------------------------------|
d--0--------------------------------------| x4
a--0--------------------------------------|
d--0----0-0-0-0---0-0-0-0---0-0-0-0---0-0-|

pm      . . . .   . . . .   . . . .   . .


End
Guitars 1&2

e-----
b-----
g-----
d--0--
a--0--
d--0--
Comments