Bloodhound Gang - Your Pretty When Im Drunk Chords & Tabs

 

Your Pretty When Im Drunk Chords & Tabs

Bloodhound Gang Chords & Tabs

Version: 1 Type: Bass Tab 0 ratings
1 star 2 stars 3 stars 4 stars 5 stars
comments

Your Pretty When Im Drunk Bass Tab

intro        main riff
G-----------|----------------------------|
D-----------|----------2-5---------------|
A-5-5-----5-|------2-5-------------2-3-5-|
E-----7-5---|3---3---------5---5-5-------|

sometimes he "plays" this
G-----------------------------|
D-----------2-5---------------|
A-------2-5---------5-5-----5-|
E-3---3---------5-------7-5---|
[ Tab from: http://www.guitartabs.cc/tabs/b/bloodhound_gang/your_pretty_when_im_drunk_btab.html ]
on the "drum" solo,
he does this
G--------------|
D--------------|
A--------------|
E-3----------3-|


thats all! pat yourself on the back, through a party, hug a tree... well, maybe not that.


if ya gots questions, need the lyrics, or want to pay me for sex, then email me at fuser158@sbcglobal.net


i want YOU, to join the ug


p.s. if you want any bloodhound gang song or video, just tell me.


p.p.s. ... its there even a such thing as p.p.s.?
Comments