Bloodhound Gang - Vagina Song Chords & Tabs

 

Vagina Song Chords & Tabs

Bloodhound Gang Chords & Tabs

Version: 3 Type: Tab 0 ratings
1 star 2 stars 3 stars 4 stars 5 stars
comments

Vagina Song Tab

                         BloodHound Gang
                         The Vagina Song

                           By: PigMan
[ Tab from: http://www.guitartabs.cc/tabs/b/bloodhound_gang/vagina_song_tab_ver_3.html ]
E- |------------------------------------------------ | ------------------------------------------------------|
B- |-7----7----5---------7----7-------7--8---------- | -7----7----5---------7--7--7--7--10--10--10--10-------|
G- |---7----7----6----6----7----7--9-------9-------- | ---7----7----6----6-----------------------------------|
D- |-----------------7------------------------------ | -----------------7------------------------------------|
A- |------------------------------------------------ | ------------------------------------------------------|
E- |------------------------------------------------ | ------------------------------------------------------|
                                                       After about 4 times go to this

E- |----------------------------------------------------------------------------------------------------------|
B- |----------------------------------------------------------------------------------------------------------|
G- |----------------------------------------------------------------------------------------------------------|
D- |----------------------------------------------------------------------------------------------------------|
A- |-2--2--2----0--0--0--4--2--2--2----0--0--0--4--5--5--5----3--3--3--7--5--5--5----3--3--3--4---------------|
E- |-----------2-------------------------2-------------------------5-------------------------5----------------|
   Repeat this a couple of times then go into the verses
   which I haven?t tried to figure out yet.  Anyway, that?s
   pretty accurate on the intro.
Comments