Bloodhound Gang - Three Point One Four Chords & Tabs

 

Three Point One Four Chords & Tabs

Bloodhound Gang Chords & Tabs

Version: 9 Type: Tab

Three Point One Four Tab

-------------------------------------------------------------------------------
			     three point one four - bloodhound gang
-------------------------------------------------------------------------------
Tabbed by:Gary Johnson
Email:sk8erz17@yahoo.com
[ Tab from: http://www.guitartabs.cc/tabs/b/bloodhound_gang/three_point_one_four_tab_ver_9.html ]
Tuning:EADGBe
This is the correct intro for this song the others aren't
e|--------------------------------------------------------------------------|
B|-7-7--5-5-7-7-5-7-8-5-----------------------------------------------------|
G|--7-7--6---7-7------------------------three times-------------------------|
D|--------7-----------------------------------------------------------------|
A|--------------------------------------------------------------------------|
E|--------------------------------------------------------------------------|
then this once
e|---------------------------------------------------------------------------|
B|-7-7-5--5-7-7-7-7-10-10-10-10----------------------------------------------|
G|--7-7-6--------------------------------------------------------------------|
D|-------7-------------------------------------------------------------------|
A|---------------------------------------------------------------------------|
E|---------------------------------------------------------------------------|