Bloodhound Gang - Three Point One Four Chords & Tabs

 

Three Point One Four Chords & Tabs

Bloodhound Gang Chords & Tabs

Version: 5 Type: Tab 0 ratings
1 star 2 stars 3 stars 4 stars 5 stars
comments

Three Point One Four Tab

   
Bloodhound Gang, Three point one four.
 Tabbed by Carl Fritzell,carl@fritzell.se.
  
Artist:     The Bloodhound Gang
Song:       Three point one four(The Vagina Song)
C.D.:       Hooray For Boobies
Tabbed By:  Carl Fritzell and Krister Lövgren

Intro                                 3x

e-|--2----2---0-----0---2---2---0-2-3-0-|
B-|----3----3---2-2-------3---3---------|
G-|-------------------------------------|
D-|-------------------------------------|
A-|-------------------------------------|
E-|-------------------------------------|

third time:
[ Tab from: http://www.guitartabs.cc/tabs/b/bloodhound_gang/three_point_one_four_tab_ver_5.html ]
e|-2---2---0----0--2-2-2-2--5-5-5-5-----|
B|---3---3---2-2------------------------|
G-|-------------------------------------|
D-|-------------------------------------|
A-|-------------------------------------|
E-|-------------------------------------|

Chorus:

D,D,D,D; A,A,A; B,B,B,B; G,G,G
That's pretty much the whole song. We are not sure if in the chorus it is a G or a G Minor, both of them sounds ok.
 
:: Ultimate Guitar Archive :: 
http://www.ultimate-guitar.com 



Comments