Bloodhound Gang - Three Point One Four Chords & Tabs

 

Three Point One Four Chords & Tabs

Bloodhound Gang Chords & Tabs

Version: 1 Type: Tab 0 ratings
1 star 2 stars 3 stars 4 stars 5 stars
comments

Three Point One Four Tab

~~~~~~~~~~~~~~~~~~~~~~~~~~~~~~~~~~~~~~~~~~~~~~~~~~~~~~~~~~~~~~~~
The Bloodhound Gang - Three Point One Four
(known to most people as the Vagina Song)
~~~~~~~~~~~~~~~~~~~~~~~~~~~~~~~~~~~~~~~~~~~~~~~~~~~~~~~~~~~~~~~~

tabbed by Alan Good (kentucky_fried_children_@hotmail.com)

Dropped D tuning (DADGBE)

Intro:

e---------------------------------------------
b-7---7---5-----5----7---7---5--7--8--7-------
g---7---7---6------7---7----------------------       (x3)
d-------------7-------------------------------
a---------------------------------------------
d---------------------------------------------

Transition:

e---------------------------------------------
b-7---7---5-----5--7--7--7--7--10--10--10--10-
g---7---7---6---------------------------------       
d-------------7-------------------------------
a---------------------------------------------
d---------------------------------------------

PRE-VERSE (distortion):

e---------------------------------------------
b---------------------------------------------
g---------------6-4-4-4-----------------------
d-0-0-0-4-7-7-7-6-4-4-4-4-7-7-7---------------      (x2)
a-0-0-0-4-7-7-7-4-2-2-2-4-7-7-7---------------
d-0-0-0-4-7-7-7---------4-7-7-7---------------

VERSE: This might be done on the bass but sounds cool 
on guitar anyway!

e-----------------------------------------------------------------
b-----------------------------------------------------------------
g-----------------------------------------------------------------
d-----------------------------------------------------------------
a---------------------------------0-4-0---0-4-0---0-4-0---0-4-0---
d-0-4-0---0-4-0---0-4-0---0-4-0-----------------------------------

[ Tab from: http://www.guitartabs.cc/tabs/b/bloodhound_gang/three_point_one_four_tab.html ]
e-----------------------------------------------------------------
b-----------------------------------------------------------------
g-----------------------------------------------------------------
d-----------------------------------------------------------------
a-2-5-2---2-5-2---2-5-2---2-5-2---0-4-0---0-4-0---0-4-0---0-4-0---
d-----------------------------------------------------------------


e-----------------------------------------------------------------
b-----------------------------------------------------------------
g-----------------------------------------------------------------
d-----------------------------------------------------------------
a-----------------0-0-0-0-5-5-5-5-0-0-0-0-4-4-4-4-7-7-7-7-4-4-4-4-
d-0-0-0-0-4-4-4-4-------------------------------------------------

e-----------------------------------------------------------------
b-----------------------------------------------------------------
g-----------------------------------------------------------------
d---------1-1-1-1-4-4-4-4-1-1-1-1---------------------------------
a-2-2-2-2-------------------------0-0-0-0-4-4-4-4-7-7-7-7-4-----
d-----------------------------------------------------------------

CHORUS:

e----------------------------------------------
b----------------------------------------------
g----------------------------------------------
d-0-0-0-0-4-4-4-4-9-9-9-9-7-7-7-7--------------     (x4)
a-0-0-0-0-4-4-4-4-9-9-9-9-7-7-7-7--------------
d-0-0-0-0-4-4-4-4-9-9-9-9-7-7-7-7--------------

ENDING:

e----------------------------------------------
b-7-7-7-7-10-10-10-10--------------------------
g----------------------------------------------     (repeat till
d----------------------------------------------        fade out)
a----------------------------------------------
d----------------------------------------------



SONG ORDER:

INTRO + TRANSITION
PRE-VERSE
VERSE
CHORUS
PRE-VERSE
VERSE
CHORUS
INTRO + TRANSITION/CHORUS ***
ENDING/PRE-VERSE ***

*** = There are two guitars in this song, and altough i've done 
my best to tab
the song for just one for the benefit of the casual player, the
three stars indicate 
that both guitars are doing different things.
Guitar 1 plays the intro + transition 
then the ending, while Guitar 2 plays the chorus 
followed by the pre-verse parts of 
the song. Sounds confusing, but listen to the song
 and you'll get what im talking 
about. Maybe. 


Comments