Bloodhound Gang - The Roof Is On Fire Chords & Tabs

 

The Roof Is On Fire Chords & Tabs

Bloodhound Gang Chords & Tabs

Version: 2 Type: Tab 0 ratings
1 star 2 stars 3 stars 4 stars 5 stars
comments

The Roof Is On Fire Tab

   
This song varys alot throughout so make sure you look at this carefully. It is 100%
correct, trust me. I dont normally make such long tabs, but this needed it.

I've put in two types of the same chord, for exsample there is E5 and E5*, they are
both the same, just played at different positions on the guitar. You can swap them
around if you want, i've just made it so it is easier to play. Here it is-


(clean/acoustic)
    G              Em
e|--3--3-3--3-3-3--0--0-0--0-0-0--|
B|--0--0-0--0-0-0--0--0-0--0-0-0--|
G|--0--0-0--0-0-0--0--0-0--0-0-0--| x2
D|--0--0-0--0-0-0--2--2-2--2-2-2--|
A|--2--2-2--2-2-2--2--2-2--2-2-2--|
E|--3--3-3--3-3-3-----------------|

the roof, the roof, the roof is on fire
    G              Em
e|--3--3-3--3-3-3--0--0-0--0-0-0--|
B|--0--0-0--0-0-0--0--0-0--0-0-0--|
G|--0--0-0--0-0-0--0--0-0--0-0-0--| x3
D|--0--0-0--0-0-0--2--2-2--2-2-2--|
A|--2--2-2--2-2-2--2--2-2--2-2-2--|
E|--3--3-3--3-3-3-----------------|

we dont need no water, let the mother F***er burn   
    D              C
e|--2--2-2--2-2-2--0--0-0--0-0-0-0-0--|
B|--3--3-3--3-3-3--1--1-1--1-1-1-1-1--|
G|--2--2-2--2-2-2--0--0-0--0-0-0-0-0--|
D|--0--0-0--0-0-0--2--2-2--2-2-2-2-2--|
A|-----------------3--3-3--3-3-3-3-3--|
E|------------------------------------|
 
(heavy distortion)

    G5          B5  E5          X
e|-----------------------------------|
B|-----------------------------------|
G|--------------4-4------------------|
D|--5-5-5-5-5-5-4-4-2-2-2-2-2-2-0-0--| x3
A|--5-5-5-5-5-5-2-2-2-2-2-2-2-2-0-0--|
E|--3-3-3-3-3-3-----0-0-0-0-0-0-0-0--|

    G5          B5* E5*
e|---------------------|
B|---------------------|
G|------------------9--|
D|--5-5-5-5-5-5-9-9-9--|
A|--5-5-5-5-5-5-9-9-7--|
E|--3-3-3-3-3-3-7-7----|

(clean/acoustic)

    G              Em
e|--3--3-3--3-3-3--0--0-0--0-0-0--|
B|--0--0-0--0-0-0--0--0-0--0-0-0--|
G|--0--0-0--0-0-0--0--0-0--0-0-0--| x3
D|--0--0-0--0-0-0--2--2-2--2-2-2--|
A|--2--2-2--2-2-2--2--2-2--2-2-2--|
E|--3--3-3--3-3-3-----------------|

    A              C
e|--0--0-0--0-0-0--0--0-0--0-0-0-0-0--|
B|--3--3-3--3-3-3--1--1-1--1-1-1-1-1--|
G|--3--3-3--3-3-3--0--0-0--0-0-0-0-0--|
D|--3--3-3--3-3-3--2--2-2--2-2-2-2-2--|
A|--0--0-0--0-0-0--3--3-3--3-3-3-3-3--|
E|------------------------------------|

(heavy distortion)
A|--3-0-2-0--|

.....im hung like planet pluto
    G5              E5
e|-----------------------------------|
B|-----------------------------------|
G|-----------------------------------|
D|--5-5-5-5-5-5-5-5-2-2-2-2-2-2-2-2--| x3
A|--5-5-5-5-5-5-5-5-2-2-2-2-2-2-2-2--|
E|--3-3-3-3-3-3-3-3-0-0-0-0-0-0-0-0--|

    A5              C5
e|--------------------------------------------|
B|--------------------------------------------|
G|--5-5-5-5-5-5-5-5-7-7-7-7-7-7-7-7-----------|
D|--5-5-5-5-5-5-5-5-7-7-7-7-7-7-7-7-----------|
A|--3-3-3-3-3-3-3-3-5-5-5-5-5-5-5-5--3-0-2-0--|
E|--------------------------------------------|

.....the roof, the roof....
    G5          B5  E5          B5
e|-----------------------------------|
B|-----------------------------------|
G|--------------4-4-------------4-4--|
D|--5-5-5-5-5-5-4-4-2-2-2-2-2-2-4-4--| x3
A|--5-5-5-5-5-5-2-2-2-2-2-2-2-2-2-2--|
E|--3-3-3-3-3-3-----0-0-0-0-0-0------|


....we dont need no water let the mother f****er burn
    C5              A5
e|-----------------------------------|
B|-----------------------------------|
G|--7-7-7-7-7-7-7-7-5-5-5-5-5-5-5-5--|
D|--7-7-7-7-7-7-7-7-5-5-5-5-5-5-5-5--|
A|--5-5-5-5-5-5-5-5-3-3-3-3-3-3-3-3--|
E|-----------------------------------|
[ Tab from: http://www.guitartabs.cc/tabs/b/bloodhound_gang/the_roof_is_on_fire_tab_ver_2.html ]
    G5          B5  E5          E5*
e|-----------------------------------|
B|-----------------------------------|
G|--------------4-4-------------9-9--|
D|--5-5-5-5-5-5-4-4-2-2-2-2-2-2-9-9--| x3
A|--5-5-5-5-5-5-2-2-2-2-2-2-2-2-7-7--|
E|--3-3-3-3-3-3-----0-0-0-0-0-0------|

    G5          B5* E5*
e|---------------------|
B|---------------------|
G|------------------9--|
D|--5-5-5-5-5-5-9-9-9--|
A|--5-5-5-5-5-5-9-9-7--|
E|--3-3-3-3-3-3-7-7----|


this hardcore ghetto image....
    G5              E5
e|-----------------------------------|
B|-----------------------------------|
G|-----------------------------------|
D|--5-5-5-5-5-5-5-5-2-2-2-2-2-2-2-2--| x3
A|--5-5-5-5-5-5-5-5-2-2-2-2-2-2-2-2--|
E|--3-3-3-3-3-3-3-3-0-0-0-0-0-0-0-0--|

    D5          G5  E5
e|---------------------|
B|---------------------|
G|---------------------|
D|--7-----------5---2--|
A|--7-----------5---2--|
E|--5-----------3---0--|

    G5              E5
e|-----------------------------------|
B|-----------------------------------|
G|-----------------------------------|
D|--5-5-5-5-5-5-5-5-2-2-2-2-2-2-2-2--| x3
A|--5-5-5-5-5-5-5-5-2-2-2-2-2-2-2-2--|
E|--3-3-3-3-3-3-3-3-0-0-0-0-0-0-0-0--|

    A5              C5
e|--------------------------------------------|
B|--------------------------------------------|
G|--5-5-5-5-5-5-5-5-7-7-7-7-7-7-7-7-----------|
D|--5-5-5-5-5-5-5-5-7-7-7-7-7-7-7-7-----------|
A|--3-3-3-3-3-3-3-3-5-5-5-5-5-5-5-5--3-0-2-0--|
E|--------------------------------------------|

.....the roof, the roof....
    G5          B5  E5          B5
e|-----------------------------------|
B|-----------------------------------|
G|--------------4-4-------------4-4--|
D|--5-5-5-5-5-5-4-4-2-2-2-2-2-2-4-4--| x3
A|--5-5-5-5-5-5-2-2-2-2-2-2-2-2-2-2--|
E|--3-3-3-3-3-3-----0-0-0-0-0-0------|

....we dont need no water let the mother f****er burn
    C5              A5
e|-----------------------------------|
B|-----------------------------------|
G|--7-7-7-7-7-7-7-7-5-5-5-5-5-5-5-5--|
D|--7-7-7-7-7-7-7-7-5-5-5-5-5-5-5-5--|
A|--5-5-5-5-5-5-5-5-3-3-3-3-3-3-3-3--|
E|-----------------------------------|

    G5          B5  E5          E5*
e|-----------------------------------|
B|-----------------------------------|
G|--------------4-4-------------9-9--|
D|--5-5-5-5-5-5-4-4-2-2-2-2-2-2-9-9--| x3
A|--5-5-5-5-5-5-2-2-2-2-2-2-2-2-7-7--|
E|--3-3-3-3-3-3-----0-0-0-0-0-0------|

    G5          B5* E5*
e|---------------------|
B|---------------------|
G|------------------9--|
D|--5-5-5-5-5-5-9-9-9--|
A|--5-5-5-5-5-5-9-9-7--|
E|--3-3-3-3-3-3-7-7----|

(clean/acoustic)

...everybody here we go.....
    G              Em
e|--3--3-3--3-3-3--0--0-0--0-0-0--|
B|--0--0-0--0-0-0--0--0-0--0-0-0--|
G|--0--0-0--0-0-0--0--0-0--0-0-0--| x4
D|--0--0-0--0-0-0--2--2-2--2-2-2--|
A|--2--2-2--2-2-2--2--2-2--2-2-2--|
E|--3--3-3--3-3-3-----------------|

(heavy distortion)

    G5          B5  E5          X
e|-----------------------------------|
B|-----------------------------------|
G|--------------4-4------------------|
D|--5-5-5-5-5-5-4-4-2-2-2-2-2-2-0-0--| x3
A|--5-5-5-5-5-5-2-2-2-2-2-2-2-2-0-0--|
E|--3-3-3-3-3-3-----0-0-0-0-0-0-0-0--|

    G5          B5* E5*
e|------------------------------------|
B|------------------------------------|
G|------------------9-9-9-9-9-9-9-9-9-|
D|--5-5-5-5-5-5-9-9-9-9-9-9-9-9-9-9-9-|
A|--5-5-5-5-5-5-9-9-7-7-7-7-7-7-7-7-7-|
E|--3-3-3-3-3-3-7-7-------------------|

    G5          B5  E5          X
e|-----------------------------------|
B|-----------------------------------|
G|--------------4-4------------------|
D|--5-5-5-5-5-5-4-4-2-2-2-2-2-2-0-0--| repeat until fade-out
A|--5-5-5-5-5-5-2-2-2-2-2-2-2-2-0-0--|
E|--3-3-3-3-3-3-----0-0-0-0-0-0-0-0--|
Comments