Bloodhound Gang - The Lap Dance Is So Much Better When The Stripper Is Crying Chords & Tabs

 

The Lap Dance Is So Much Better When The Stripper Is Crying Chords & Tabs

Bloodhound Gang Chords & Tabs

Version: 1 Type: Bass Tab 0 ratings
1 star 2 stars 3 stars 4 stars 5 stars
comments

The Lap Dance Is So Much Better When The Stripper Is Crying Bass Tab

    This is a very simple but fun track to play
Listed below is the bass line for this song.
Enjoy.


G|--------------9--9--|
D|------7--77--7------|
A|--5--5------------5-|
E|--------------------|
[ Tab from: http://www.guitartabs.cc/tabs/b/bloodhound_gang/the_lap_dance_is_so_much_better_when_the_stripper_is_crying_btab.html ]
G|-------------------7--7----7--7--------------------7--7----7-|
D|---7--7----7--75--5----5--5--------7--7----7--75--5----5--5--|
A|--5----5--5--------------------5--5----5--5------------------|
E|-------------------------------------------------------------|

G|--7--------------------9--9----9--9-----------------|
D|-------7--7----7--77--7----7--7--------7--7----7--7-| Then back to the start
A|---5--5----5--5--------------------5--5----5--5-----|
E|----------------------------------------------------|

For the ending repeat the very first part.

Tabed by Mat Sims (SIMO)
Comments