Bloodhound Gang - The Ballad Of Chasey Lain Chords & Tabs

 

The Ballad Of Chasey Lain Chords & Tabs

Bloodhound Gang Chords & Tabs

Version: 7 Type: Tab 0 ratings
1 star 2 stars 3 stars 4 stars 5 stars
comments

The Ballad Of Chasey Lain Tab

   
Title: Ballad Of Chasey Lain
Artist: Bloodhound Gang
Album: 

Instrument: 6 String Guitar

Tabbed by: Gary ()

Tuning: Standard (E A D G B E)




E|-------------------------------------------------------||
B|-------------------------------------------------------||
G|-6-x-6--6-6-4-9-x-9--9-9-6-----------------------------||
D|-6-x-6--6-6-4-9-x-9--9-9-6-7-x-7--7-7-9-6-x-6--6-6-9---||
A|-4-x-4--4-4-2-7-x-7--7-7-4-7-x-7--7-7-9-6-x-6--6-6-9---||
E|---------------------------5-x-5--5-5-7-4-x-4--4-4-7---||
                                          ^  
do this twice but 2nd time stop exactly ther 

then:

   Dear chasey lain a wrote to explain....
E|------------------------------------------------------------------||
B|------------------------------------------------------------------||
G|-6-6-6-6-6-6-6-6-9-9-9-9-9-9-9-9----------------------------------||
D|-6-6-6-6-6-6-6-6-9-9-9-9-9-9-9-9-7-7-7-7-7-7-7-7-6-6-6-6-6-6-6-6--|| x3
A|-4-4-4-4-4-4-4-4-7-7-7-7-7-7-7-7-7-7-7-7-7-7-7-7-6-6-6-6-6-6-6-6--||
E|---------------------------------5-5-5-5-5-5-5-5-4-4-4-4-4-4-4-4--||

then

E|--------------------||
B|--------------------||
G|-6-6-6-6-6-6-6-6----||
D|-6-6-6-6-6-6-6-6-6--||
A|-4-4-4-4-4-4-4-4-6--||
E|-----------------4--||

Small pause...

E|-----------------||
B|-----------------||
G|-6-x-6--6-6-4----||
D|-6-x-6--6-6-4-6--||
A|-4-x-4--4-4-2-6--||
E|--------------4--||


E|------------------------------------------------------------------||
B|------------------------------------------------------------------||
G|-6-6-6-6-6-6-6-6-9-9-9-9-9-9-9-9----------------------------------||
D|-6-6-6-6-6-6-6-6-9-9-9-9-9-9-9-9-7-7-7-7-7-7-7-7-6-6-6-6-6-6-6-6--|| x3
A|-4-4-4-4-4-4-4-4-7-7-7-7-7-7-7-7-7-7-7-7-7-7-7-7-6-6-6-6-6-6-6-6--||
E|---------------------------------5-5-5-5-5-5-5-5-4-4-4-4-4-4-4-4--||

then

E|--------------------||
B|--------------------||
G|-6-6-6-6-6-6-6-6----||
D|-6-6-6-6-6-6-6-6-6--||
A|-4-4-4-4-4-4-4-4-6--||
E|-----------------4--||

Small pause...

E|-----------------||
B|-----------------||
G|-6-x-6--6-6-4----||
D|-6-x-6--6-6-4-6--||
A|-4-x-4--4-4-2-6--||
E|--------------4--||

[ Tab from: http://www.guitartabs.cc/tabs/b/bloodhound_gang/the_ballad_of_chasey_lain_tab_ver_7.html ]
E|------------------------------------------------------------------||
B|------------------------------------------------------------------||
G|-6-6-6-6-6-6-6-6-9-9-9-9-9-9-9-9----------------------------------||
D|-6-6-6-6-6-6-6-6-9-9-9-9-9-9-9-9-7-7-7-7-7-7-7-7-6-6-6-6-6-6-6-6--|| x3
A|-4-4-4-4-4-4-4-4-7-7-7-7-7-7-7-7-7-7-7-7-7-7-7-7-6-6-6-6-6-6-6-6--||
E|---------------------------------5-5-5-5-5-5-5-5-4-4-4-4-4-4-4-4--||

then

E|--------------------||
B|--------------------||
G|-6-6-6-6-6-6-6-6----||
D|-6-6-6-6-6-6-6-6-6--||
A|-4-4-4-4-4-4-4-4-6--||
E|-----------------4--||

Small pause...

E|-----------------||
B|-----------------||
G|-6-x-6--6-6-4----||
D|-6-x-6--6-6-4-6--||
A|-4-x-4--4-4-2-6--||
E|--------------4--||


   P.S mom an dad...
E|----------------------------------------------------||
B|----------------------------------------------------||
G|---------------------------------6-6-6-6-6-6-6-6----||
D|-6-6-6-6-6-6-6-6-6-6-6-6-6-6-6-6-6-6-6-6-6-6-6-6-6--||
A|-6-6-6-6-6-6-6-6-6-6-6-6-6-6-6-6-4-4-4-4-4-4-4-4-6--||
E|-4-4-4-4-4-4-4-4-4-4-4-4-4-4-4-4-----------------4--||



E|------------------------------------------------------------------||
B|------------------------------------------------------------------||
G|------------------------------------------------------------------||
D|-2-2-2-2-2-2-2-2-2-2-2-2-2-2-2-2-4-4-4-4-4-4-4-4-4-4-4-4-4-4-4-4--||
A|-2-2-2-2-2-2-2-2-2-2-2-2-2-2-2-2-4-4-4-4-4-4-4-4-4-4-4-4-4-4-4-4--||
E|-0-0-0-0-0-0-0-0-0-0-0-0-0-0-0-0-2-2-2-2-2-2-2-2-2-2-2-2-2-2-2-2--||


E|----------------------------------------------------||
B|----------------------------------------------------||
G|---------------------------------6-6-6-6-6-6-6-6----||
D|-6-6-6-6-6-6-6-6-6-6-6-6-6-6-6-6-6-6-6-6-6-6-6-6-6--||
A|-6-6-6-6-6-6-6-6-6-6-6-6-6-6-6-6-4-4-4-4-4-4-4-4-6--||
E|-4-4-4-4-4-4-4-4-4-4-4-4-4-4-4-4-----------------4--||


E|---------------------------------------------------------------------||
B|---------------------------------------------------------------------||
G|---------------------------------------------------------------------||
D|-2-2-2-2-2-2-2-2-2-2-2-2-2-2-2-2-4-4-4-4-4-4-4-4-4-------------------||
A|-2-2-2-2-2-2-2-2-2-2-2-2-2-2-2-2-4-4-4-4-4-4-4-4-4-------------------||
E|-0-0-0-0-0-0-0-0-0-0-0-0-0-0-0-0-2-2-2-2-2-2-2-2-2-------------------||


E|-------------------------------------------------------||
B|-------------------------------------------------------||
G|-6-x-6--6-6-4-9-x-9--9-9-6-----------------------------||
D|-6-x-6--6-6-4-9-x-9--9-9-6-7-x-7--7-7-9-6-x-6--6-6-9---||
A|-4-x-4--4-4-2-7-x-7--7-7-4-7-x-7--7-7-9-6-x-6--6-6-9---||
E|---------------------------5-x-5--5-5-7-4-x-4--4-4-7---||
                                          ^ 
do this twice like the beginnin an stop at the exact same place then ur dun :)
Comments