Bloodhound Gang - The Ballad Of Chasey Lain Chords & Tabs

 

The Ballad Of Chasey Lain Chords & Tabs

Bloodhound Gang Chords & Tabs

Version: 1 Type: Tab 1 rating
1 star 2 stars 3 stars 4 stars 5 stars
comments

The Ballad Of Chasey Lain Tab

Song: THE BALLAD OF CHASEY LANE
Artist: Bloodhound Gang
Album: Hooray for Boobies
Tabbed by: Dirk Reuhl (Bärto)  (reuhler@01019freenet.de)

The song is played with heavy destortion

x = scratch
- - - -  = palm mute


Intro:

e--------------------------------------------------------------------------------------------|
h--------------------------------------------------------------------------------------------|
D---------------------------9-x--9----9-9-9-------------------------------------------------|
G---11-x-11----11-11-11----9-x--9----9-9-9----7-x-7----7-7-7----6-x-6----6-6-6------------|
A---11-x-11----11-11-11----7-x--7----7-7-7----7-x-7----7-7-7----6-x-6----6-6-6------------|
E----9--x--9----9--9--9-------------------------5-x-5----5-5-5----4-x-4----4-4-4------------|


e--------------------------------------------------------------------------------------------|
h--------------------------------------------------------------------------------------------|
D---------------------------9-x-9-----9-9-9-------------------------------------------------|
G---11-x-11----11-11-11----9-x--9----9-9-9----7-x-7----7-7-7----6-x-6----6----------------|
A---11-x-11----11-11-11----7-x--7----7-7-7----7-x-7----7-7-7----6-x-6----6----------------|
E----9--x--9----9--9--9-------------------------5-x-5----5-5-5----4-x-4----4---------------|



Part 1:          Dear Chasey Lain.......                  Part 1.2:
[ Tab from: http://www.guitartabs.cc/tabs/b/bloodhound_gang/the_ballad_of_chasey_lain_tab.html ]
e-------------------------------------------------|------------------------------------------------|
h-------------------------------------------------|------------------------------------------------|
D-------------9-----------------------------------|------------9-------------------------------9---|
G---11--------9-(x8)-----7---------6------------- -|---11-------9-------11-x-11----11-11-11---9---|
A---11-(x8)----7---------7-(x8)-----6-(x8)----------|---11-(x8)---7-------11-x-11----11-11-11---7---|
E----9-------------------5---------4--------------|----9----------------9--x--9-----9--9--9-------|

palm mute- - - - - - - - - - - - - - - - - - - - - - - - - - - - -      


Part 2:           P.S. Mom and Dad this is..........


e---------------------------------------------------------------------------|
h---------------------------------------------------------------------------|
D---------------------------------------------------------------------------|
G---9-----------11---------11---------------2------------9---------4-------|
A---9-(x14)------11-(x7)-----11--------------2-(x14)-------9-(x7)-----4------|
E---7------------9----------9---------------0-------------7---------2------|

palm mute- - - - - -                               - - - - - - - - - -


Outro=Intro

Order:                  Intro
                            Part 1      (x3)      [Part 1 and Part 1.2   (x3)]
                            Part 1.2   (x1)
                            Part 2      (x2)
                            Outro=Inrto


Comments