Bloodhound Gang - Something Diabolical Chords & Tabs

 

Something Diabolical Chords & Tabs

Bloodhound Gang Chords & Tabs

Version: 2 Type: Tab

Something Diabolical Tab

it goes Summit like this i think

something dioboilical
[ Tab from: http://www.guitartabs.cc/tabs/b/bloodhound_gang/something_diabolical_tab_ver_2.html ]
e-----------------------------------------|
B-----------------------------------------|
G-----------------------------------------|
D--3-5-6-3---3-5--------------------------|
A----------------6-8----------------------|
E-----------------------------------------|


e----------------------------------------|
B----------------------------------------|
G-------3-3---5-6-6----------------------|
D-3-5-6--------------6---4-3-------------|
A----------------------------------------|
E----------------------------------------|