Bloodhound Gang - Something Diabolical Chords & Tabs

 

Something Diabolical Chords & Tabs

Bloodhound Gang Chords & Tabs

Version: 1 Type: Tab 0 ratings
1 star 2 stars 3 stars 4 stars 5 stars
comments

Something Diabolical Tab

-----------------------------------------------------------------------------
Something Diabolical - Bloodhound Gang
-----------------------------------------------------------------------------
Tabbed by: d12maderfaker@gmail.com
Album: Hefty Five
Tuning : standard

(intro 0:48-1:14) Repeat every time when guitar comes.
[ Tab from: http://www.guitartabs.cc/tabs/b/bloodhound_gang/something_diabolical_tab.html ]
e-----------------------------------------|
B-----------------------------------------|
G-----------------------------------------|
D--2-4-5-2---2-4--------------------------|
A----------3-----5-7---3------------------|
E-----------------------------------------|


e----------------------------------------|
B----------------------------------------|
G-------2-2---4-5-5----------------------|
D-2-4-5--------------5---3-2-------------|
A----------------------3-----------------|
E----------------------------------------|


My first tab, I hope you like it :)
Comments