Bloodhound Gang - Pennsylvania Chords & Tabs

 

Pennsylvania Chords & Tabs

Bloodhound Gang Chords & Tabs

Version: 1 Type: Tab 0 ratings
1 star 2 stars 3 stars 4 stars 5 stars
comments

Pennsylvania Tab

----------------------------------------------------------------------------
			     Pennsylvania - Bloodhound Gang
----------------------------------------------------------------------------
Tabbed by: Stumaster18
Email:?
Tuning: Standard Tuning

well. a new song from the new bloodhound cd. it kicks ass!! hope you like it!! as far as 
concerned, it's perfect!! PLEASE RATE!!

1st Verse: (starts out right away)
e|------------------------------------|
B|----------all-palm-muted!-----------|
G|------------------------------------|
D|-5-(x16)----------------------------| x1
A|-3--------7-(x16)--2-(x16)--5-(x16)-|
E|----------5--------0--------3-------|

**the second time the above part is played, the last power chord (E3, A5) is not palm 
please make a note of that!!**


Part After Verse:
Guitar 1:
e|-----------------------------------|
B|-----------------------------------|
G|-----------------------------------|
D|-5-(x8)----------------------------| x2
A|-3--------7-(x8)---2-(x8)---5-(x8)-|
E|----------5--------0--------3------|

Guitar 2:
e|-----------------------------------------|
B|-----------------------------------------|
G|-----------------------------------------|x1
D|-----------------------------------------|
A|-7-7-7-7-5-------------------5---------5-|
E|-----------7-7-7-7-5-7-7-7-7---7-7-7-7---|

e|--------------------------------------------|
B|--------------------------------------------|
G|--------------------------------------------|x1
D|--------------------------------------------|
A|-7-7-7-7-5-------------------5---------5-7~-|
E|-----------7-7-7-7-5-7-7-7-7---7-7-7-7------|


2nd Verse:
e|------------------------------------|
B|----------all-palm-muted!-----------|
G|------------------------------------|
D|-5-(x16)----------------------------| x1
A|-3--------7-(x16)--2-(x16)--5-(x16)-|
E|----------5--------0--------3-------|

**the second time the above part is played, the last power chord (E3, A5) is not palm 
please make a note of that!!**
[ Tab from: http://www.guitartabs.cc/tabs/b/bloodhound_gang/pennsylvania_tab.html ]
Chorus:
e|------------------------------------|
B|------------------------------------|
G|-5----------------------------------|
D|-5-(x16)--7--------2--------5-------| x2
A|-3--------7-(x16)--2-(x16)--5-(x16)-|
E|----------5--------0--------3-------|

Part After Chorus:
Guitar 1:
e|-----------------------------------|
B|-----------------------------------|
G|-----------------------------------|
D|-5-(x8)----------------------------| x2
A|-3--------7-(x8)---2-(x8)---5-(x8)-|
E|----------5--------0--------3------|

Guitar 2:
e|-----------------------------------------|
B|-----------------------------------------|
G|-----------------------------------------|x1
D|-----------------------------------------|
A|-7-7-7-7-5-------------------5---------5-|
E|-----------7-7-7-7-5-7-7-7-7---7-7-7-7---|

e|--------------------------------------------|
B|--------------------------------------------|
G|--------------------------------------------|x1
D|--------------------------------------------|
A|-7-7-7-7-5-------------------5---------5-7~-|
E|-----------7-7-7-7-5-7-7-7-7---7-7-7-7------|


**1st Verse played again, then goes straight into Chorus**


Part After Chorus:
Guitar 1:
e|-----------------------------------|
B|-----------------------------------|
G|-----------------------------------|
D|-5-(x8)----------------------------| x4
A|-3--------7-(x8)---2-(x8)---5-(x8)-|
E|----------5--------0--------3------|

Guitar 2:                                           \
e|-----------------------------------------|        |
B|-----------------------------------------|        |
G|-----------------------------------------|x1      |
D|-----------------------------------------|        |
A|-7-7-7-7-5-------------------5---------5-|        |
E|-----------7-7-7-7-5-7-7-7-7---7-7-7-7---|        |
                                                    |-- x2
e|--------------------------------------------|     |
B|--------------------------------------------|     |
G|--------------------------------------------|x1   |
D|--------------------------------------------|     |
A|-7-7-7-7-5-------------------5---------5-7~-|     |
E|-----------7-7-7-7-5-7-7-7-7---7-7-7-7------|     |
                                                   /
End with: (both guitars)
e|----|
B|----|
G|----|
D|-7~-|
A|-7~-|
E|-5~-|

yeyeye!!! awesome song!!! hope you enjoy it!! I sure did! Ciao people :)
Comments