Bloodhound Gang - No Hard Feelings Chords & Tabs

 

No Hard Feelings Chords & Tabs

Bloodhound Gang Chords & Tabs

Version: 1 Type: Tab 0 ratings
1 star 2 stars 3 stars 4 stars 5 stars
comments

No Hard Feelings Tab

This is my first tab, it sounds pretty accurate to me. Any suggestions, comments, 
or corrections, email at sid3_eff3ct@yahoo.com

Intro Lead Riff:

comes in at around 0:36

w/ phaser, wah, and distortion

e|-------------------------------------------------------------------|
B|-------------------------------------------------------------------|
G|-------------------------------------------------------------------|
D|-4-4-4-4--4-5-4--------------5-4-------------5-4-------------5-7---| x4
A|-----------------7-7-7-7--7-------5-5-5-5--5------4-4-4-4--4-------|
E|-------------------------------------------------------------------|

during the second time comes the rhythm guitar which goes something like this:

w/ heavy distortion

e|-------------------------------------------------------------------|
B|-------------------------------------------------------------------|
G|-------------------------------------------------------------------|
D|-4-(x8)------------------------------------------------------------|
A|-2-----------2-(x8)----------5-(x8)----------7-(x8)----------------|
E|-------------0---------------3---------------5---------------------|


then after that the 1st verse kicks in and you play
[ Tab from: http://www.guitartabs.cc/tabs/b/bloodhound_gang/no_hard_feelings_tab.html ]
clean
e|-------------------------------------------------------------------|
B|-------------------------------------------------------------------|
G|-------------------------------------------------------------------|
D|-4-4--4-4----------------------------------------------------------|
A|-2-2--2-2-----2-2--2-2-----5-5--5-5-----7-7--7-7-------------------|
E|--------------0-0--0-0-----3-3--3-3-----5-5--5-5-------------------|

play that during the verses


then when the ending of the song comes where Jimmy says, "Well maybe it ain't your 
you play the rhythm you played for the intro a bunch of times.

During the second time playing it, the lead riff comes in, play that twice then a little 
riffs comes on which goes like this:

w/ light distortion
e|--------------------------------------------------------------------|
B|--------------------------------------------------------------------|
G|--------------------------------------------------------------------|
D|-4--4-5-----5-4-----5-4-----5-7-------------------------------------| x4
A|---------7--------5------4------------------------------------------|
E|--------------------------------------------------------------------|


Hefty Fine is a great album, go check it out.
Comments