Bloodhound Gang - Kiss Me Where It Smells Funny Chords & Tabs

 

Kiss Me Where It Smells Funny Chords & Tabs

Bloodhound Gang Chords & Tabs

Version: 1 Type: Tab 1 rating
1 star 2 stars 3 stars 4 stars 5 stars
comments

Kiss Me Where It Smells Funny Tab

~~~~~~~~~~~~~~~~~~~~~~~~~~~~~~~~~~~~~~~~~~~~~~~~~~~~~

Kiss Me Where It Smells Funny - Bloodhound Gang

~~~~~~~~~~~~~~~~~~~~~~~~~~~~~~~~~~~~~~~~~~~~~~~~~~~~~

tabbed by Alan Good (kentucky_fried_children_@hotmail.com)

tuning: standard (ebgdae)

this is pretty basic, listen to the song to get which bits are which,
theyre all pretty distinctive anyway


intro

e------------------------------------------------
b------------------------------------------------
g------------------------------------------------     (x4)
d------------------------------------------------
a---------------------------5--------------------
e--00-5-7---00-5-7---00-5-7---7-5-7--------------


pre verse

e------------------------------------------------
b------------------------------------------------
g------------------------------------------------     (x4)
d--22222222--5--5-----22222222---5--5------------
a--22222222--5--5-----22222222---5--5------------
e--00000000--3--3-----00000000---3--3------------



verses 1 + 2

e----------------------------------------------------------
b----------------------------------------------------------
g----------------------------------------------------------
d--2222---5--9--7777--5--9--5555--9--7--5--22222222--5--5--
a--2222---5--9--7777--5--9--5555--9--7--5--22222222--5--5--
e--0000---3--7--5555--3--7--5555--7--5--3--00000000--3--3--


verse 3 ("drop my face below her waist, and stay at third base..." etc)
[ Tab from: http://www.guitartabs.cc/tabs/b/bloodhound_gang/kiss_me_where_it_smells_funny_tab.html ]
e------------------------------------------------
b------------------------------------------------
g--------------44---7---77-----------------------     (x8)
d--22--55--77--44---7---77-----------------------
a--22--55--77--22->-5->-22-----------------------
e--00--33--55------------------------------------





Lyrics:

You came twice last year like a Sears catalog
Coz your last boyfriend makes love like Boss Hogg
But now you're seeing me, but soon I'll have you seeing God
Cause girl, I'll get you panting like a Pavlov's dog

Like a DC-10 guaranteed to go down
But baby your black box is the one that I've found
I'll give you the gift that keeps on giving, it wont cost you any money
Then she grabbed me by the ears and said kiss me where it smells funny

So down I go like I'm two thousand flushes
I can tell I'm doing something right by the way that she blushes
She's the one that's speechless, I'm the one that's tongue tied
She's thinking holy mackerel, I'm thinking tuna on the side

There must be something wrong with Al Pacino's nose
Coz the scent of a woman is like rotten tomatoes
Yeah, I'm snorkeling for clams and it doesn't matter if I wanna be
Don't come up for air until you kiss me where it smells funny

Drop my face below her waist, and stay on 3rd base
I can tell the cherry's ripe by the way it tastes
Yeah, I could make a lot of wine with the yeast I find inside her panties
And then drink it while eating out down at the seafood shanty

Comments