Bloodhound Gang - Kids In America Chords & Tabs

 

Kids In America Chords & Tabs

Bloodhound Gang Chords & Tabs

Version: 2 Type: Bass Tab 0 ratings
1 star 2 stars 3 stars 4 stars 5 stars
comments

Kids In America Bass Tab

   
kids in america
bloodhound gang - use your fingers
tabbed by Darren (bhgang2112@aol.com)


> = play note 8 times

riff 1                         
G|----------------------------|
D|----------------------------|
A|-------------------------5>-|
E|-5>-5>-5>-5>-3>-3>-1>-3>----|
(ending 1)        (ending 2)
G|-----------------|-------|
D|-----------------|-------|
A|-5-5-5-5---------|-5>-7>-|
E|---------0-3-5-5-|-------|
[ Tab from: http://www.guitartabs.cc/tabs/b/bloodhound_gang/kids_in_america_btab_ver_2.html ]
riff 2 (i dont think this is right)
G|-------------------------------|
D|*-----------------------------*|
A|*-------------3-3-5-5-7-7-9-9-*|
E|--3-3-5-5-7-7------------------|

G|-----------------------------------|
D|-----------------------------------|
A|-----------------------------------|
E|-3-3-5-5-7-7-9-9-5-5-7-7-9-9-11-11-|

riff 3
G|----------------------------------|
D|*--------------------------------*|
A|*------3-3-3--3-3----------------*|
E|--5--5------------3--3-1-1-1--1-1-|

I've figured out the ending but I'm not gonna post it until i figure out all 
the little bass fills.
Comments