Bloodhound Gang - Im The Least You Could Do Chords & Tabs

 

Im The Least You Could Do Chords & Tabs

Bloodhound Gang Chords & Tabs

Version: 2 Type: Tab

Im The Least You Could Do Tab

That's the Piano-Intro transcribed from the Bloodhound Gang's new song "I'm the least 
could do"

Took me a while to figure it out, but it's quite easy. I didn't tab the 
in the middle of the
song, but they aren't really impressive.
For the guitar-tabs have a look at the other tabs on this site, they are quite good.

Tuning: Standard
Best played with some echo-effect

E|------------3---------------6-4-3----1-4-4-------6-4-3-|
B|--------4-----4---4-----4----------4-------------------|
G|(5)-3-5---5-----5---3-5---5-----------------3--3-------|
D|-------------------------------------------------------|
A|-------------------------------------------------------|
E|-------------------------------------------------------|
[ Tab from: http://www.guitartabs.cc/tabs/b/bloodhound_gang/im_the_least_you_could_do_tab_ver_2.html ]
E|------------3---------------6-4-3----1-4-4-------6-4-3-|
B|--------4-----4---4-----4----------4-------------------|
G|5---3-5---5-----5---3-5---5-----------------3--3-------|
D|-------------------------------------------------------|
A|-------------------------------------------------------|
E|-------------------------------------------------------|


That's where the heavy distorted guitar comes into play
E|------------3---------------6-4-3----1-4-4-------6-4-3-|
B|--------4-----4---4-----4----------4-------------------|
G|5---3-5---5-----5---3-5---5-----------------3--3-------|
D|-------------------------------------------------------|
A|-------------------------------------------------------|
E|-------------------------------------------------------|

Watch out for the last two notes
E|------------3---------------6-4-3----1-4-4-------6-4-3-----|
B|--------4-----4---4-----4----------4-----------------------|
G|5---3-5---5-----5---3-5---5-----------------3--3-------3-5-|
D|-----------------------------------------------------------|
A|-----------------------------------------------------------|
E|-----------------------------------------------------------|

tabbed by Bernhard "MondayMassacre aka theEdge" Kastner
have phun & please rate :)