Bloodhound Gang - Im The Least You Could Do Chords & Tabs

 

Im The Least You Could Do Chords & Tabs

Bloodhound Gang Chords & Tabs

Version: 1 Type: Tab 0 ratings
1 star 2 stars 3 stars 4 stars 5 stars
comments

Im The Least You Could Do Tab

   
----------------------------------------------------------------------------       
I'm the Least You Could Do - Bloodhound Gang
----------------------------------------------------------------------------
Tabbed by: Stumaster18
Email:??
Tuning: Standard Tuning

sounds absolutely perfect to me! PPLEASE RATE!!! what a good song!!!

Intro: (after a thing of piano)
e|-----------------------------|
B|-----------------------------|
G|-----------------------------| x2
D|---------------8-(x8)--------|
A|-3-(x8)-6-(x8)-6------8-(x8)-|
E|-1------4-------------6------|

**no guitar throughout the entire 1st verse, post-verse, or 2nd verse**

Chorus:
e|-----------------|       
B|-----------------|
G|-5---------------| x2
D|-5-------6-------|
A|-3-(x24)-6-(x24)-|
E|---------4-------| 
[ Tab from: http://www.guitartabs.cc/tabs/b/bloodhound_gang/im_the_least_you_could_do_tab.html ]
e|---------------------------------|
B|---------------------------------|
G|-----------------8---------------| x2
D|-3-------6-------8-(x12)-8-------|
A|-3-(x12)-6-(x12)-6-------8-(x12)-|
E|-1-------4---------------6-------|


Post-Chorus:
e|-----------------|       
B|-----------------|
G|-5---------------| x2
D|-5-------6-------|
A|-3-(x24)-6-(x24)-|
E|---------4-------| 


Verse/Chorus
e|-----------------|       
B|-----------------|
G|-5---------------| x4
D|-5-------6-------|
A|-3-(x24)-6-(x24)-|
E|---------4-------| 

e|---------------------------------|
B|---------------------------------|
G|-----------------8---------------| x4
D|-3-------6-------8-(x12)-8-------|
A|-3-(x12)-6-(x12)-6-------8-(x12)-|
E|-1-------4---------------6-------|

Chorus/Outro:
e|---------------------------------|
B|---------------------------------|
G|-----------------8---------------| x4
D|-3-------6-------8-(x12)-8-------|
A|-3-(x12)-6-(x12)-6-------8-(x12)-|
E|-1-------4---------------6-------|

end. eff. messed up so many times in making this. but enjoy!!! sounds perfect to me!!! byeeee
Comments