Bloodhound Gang - I Wish I Was Queer So I Could Get Chicks Chords & Tabs

 

I Wish I Was Queer So I Could Get Chicks Chords & Tabs

Bloodhound Gang Chords & Tabs

Version: 3 Type: Tab 0 ratings
1 star 2 stars 3 stars 4 stars 5 stars
comments

I Wish I Was Queer So I Could Get Chicks Tab

Artist: The Bloodhound Gang
Song: I Wish I Was Queer So I Could Get Chicks
Album: One Fierce Beercoaster
Tabbed by: Ben Godby		beniliusbob@hotmail.com

Standard Tuning

Intro
---
---
---
---
-8-
-6-

Verse (palm muted)
---------------------------------------------------------
---------------------------------------------------------
---------------------------------------------------------
---------------------------------------------------------
-7-7-7-7-7-7-7-7-9-9-9-9-9-9-9-9-11-11-11-11-11-11-11-11-
-5-5-5-5-5-5-5-5-7-7-7-7-7-7-7-7-9--9--9--9--9--9--9--9--

Verse Ending 1
-----------------
-----------------
-----------------
-----------------
-11--11-14--14-9-
-9---9--12--12-7-

Verse Ending 2
-----------------------------------------------------
-----------------------------------------------------
-----------------------------------------------------
-----------------------------------------------------
-11-11-11-11-9-9-9-9-7-7-7-7-7-7-7-7-9-9-9-9-9-9-9-9-
-9--9--9--9--7-7-7-7-5-5-5-5-5-5-5-5-7-7-7-7-7-7-7-7-

Pre Chorus 1
------------------------------
------------------------------
------------------------------
------------------------------
-14--14-14-11--11-11-7--7-7-9-
-12--12-12-9---9--9--5--5-5-7-

Pre Chorus 2
----------------------------------- ---
----------------------------------- ---
----------------------------------- ---
----------------------------------- ---
-14--14-14-11--11-11-7--7-7-9--9-9- -6-x16
-12--12-12-9---9--9--5--5-5-7--7-7- -4-
[ Tab from: http://www.guitartabs.cc/tabs/b/bloodhound_gang/i_wish_i_was_queer_so_i_could_get_chicks_tab_ver_3.html ]
Chorus
----    ---    ----    --- 
----    ---    ----    ---
----    ---    ----    ---
----    ---    ----    ---
-14-x16 -9-x16 -14-x16 -9-x16
-12-    -7-    -12-    -7-
 
Bridge 1
Make sure you listen to the song to get the timing down right, or this won't sound right.
-----------------------------------------------------------
-----------------------------------------------------------
-----------------------------------------------------------
-----------------------------------------------------------
-14-14--14-14-14-14-16/14-16/14-11--11-11-11-11-11-11-9-7--
-12-12--12-12-12-12-14/12-14/12-9---9--9--9--9--9--9--7-5--

--------------------------------
--------------------------------
--------------------------------
--------------------------------
-7-7-7-7-7-7-8-9--9-9-9-9-7-6-4-
-5-5-5-5-5-5-6-7--7-7-7-7-5-4-2-

Bridge 2
"Chicks..dig guys that are queer..." This is all palm muted.
----    ---    ----    ----   ---   ----    ---    ---- 
----    ---    ----    ----   ---   ----    ---    ----
----    ---    ----    ----   ---   ----    ---    ----
----    ---    ----    ----   ---   ----    ---    ----
-11-x16 -9-x16 -11-x16 -14-x8 -9-x8 -11-x16 -9-x16 -11-x16
-9--    -7-    -9--    -12-   -7-   -9--    -7-    -9--

Outro
There are 3 parts to the outro... here they are separately...

Part 1
"See I'm not queer I'm too ugly!"
---------------------
---------------------
---------------------
---------------------
-14-14-14-14-9-9-9-9-
-12-12-12-12-7-7-7-7- 

"Uglyyyyyyyyyyy!!!!..."
------------------------------------------
------------------------------------------
------------------------------------------
------------------------------------------
-14-14-x-14-14-14-14--14-14-x-14-14-14-14-
-12-12-x-12-12-12-12--12-12-x-12-12-12-12-

"And I don't shave my hiney!..."
---    ----
---    ----
---    ----
---    ----
-9-x16 -11-x16
-7-    -9--

***********
*Tab Order*
***********
Intro	
Verse	
Verse Ending 1	
Verse			
Verse Ending 2
Pre Chorus 1
Chorus
Verse
Verse Ending 1
Verse
Verse Ending 2
Pre Chorus 2
Verse
Verse Ending 1
Verse 
Verse Ending 2
Pre Chorus 1
Chorus
Verse
Verse Ending 1
Verse
Verse Ending 2
Pre Chorus 1
Bridge 1
Verse
Verse Ending 1
Verse
Verse Ending 2
Pre Chorus 1
Bridge 2
Outro 	
Comments