Bloodhound Gang - I Hope You Die Chords & Tabs

 

I Hope You Die Chords & Tabs

Bloodhound Gang Chords & Tabs

Version: 8 Type: Tab 0 ratings
1 star 2 stars 3 stars 4 stars 5 stars
comments

I Hope You Die Tab

Song: I Hope You Die
Band: The Bloodhound Gang
Album: Hooray For Boobies
Tabbed By: Joe Swindells (joeswindells@hotmail.com)

Intro:
|-------------------------|
|-------------------------|G
|-3-33--------------------|T
|-3-33--4-44--3-33--6-66--|R
|-1-11--4-44--4-44--6-66--|1
|-------2-22--------4-44--|

|--------------------------------------------------------|
|--------------------------------------------------------|G
|--------------------------------------------------------|T
|-------3-------3------4------4-------3--3--------6-----6|R
|-1-1-1----1-1------------------4-4-4---4----------------|2
|-----------------2-2-2---2-2---------------4-4-4---4-4--|


Pre-Verse:
|-----------------------------------------|
|-----------------------------------------|G
|-33333333--------------------------------|T
|-33333333--44444444--33333333- 66666666--|R
|-11111111--44444444--44444444--66666666--|1
|-----------22222222------------44444444--|
[ Tab from: http://www.guitartabs.cc/tabs/b/bloodhound_gang/i_hope_you_die_tab_ver_8.html ]
|-----------------------------------------|
|-----------------------------------------|G
|--3--3-5-6--6-8-10--10-11-13-------------|T
|--x--x-x-x--x-x-x---x--x--x--------------|R
|--1--1-3-4--4-6-8---8--9--11-------------|2
|-----------------------------------------|


Verse:
|-----------------------------------------|
|-----------------------------------------|
|-----------------------------------------|
|-33333333------------33333333------------|
|-11111111--44444444--44444444--66666666--|
|-----------22222222------------44444444--|
 pm.......  ........  ........  ........

Chorus:
|---------------------------------------------------------|
|---------------------------------------------------------|
|---------------------10-10--10-11-10-8-10-10--10-11-10-8-|
|-33333333--44444444--------------------------------------|
|-33333333--44444444--------------------------------------|
|-11111111--22222222--------------------------------------|

|---------------------------------------------------------|
|---------------------------------------------------------|
|---------------------10-10--10-11-10-8-10----------------|
|-33333333--44444444--------------------------------------|
|-33333333--44444444--------------------------------------|
|-11111111--22222222--------------------------------------|
Comments