Bloodhound Gang - Foxtrot Uniform Charlie Kilo Chords & Tabs

 

Foxtrot Uniform Charlie Kilo Chords & Tabs

Bloodhound Gang Chords & Tabs

Version: 4 Type: Tab

Foxtrot Uniform Charlie Kilo Tab

   
the bloodhound gang
foxtrot uniform charlie kilo
hefty fine('05)
----------------------------------------------------------------------------
tabber: Wobbler
standart tuning
----------------------------------------------------------------------------

intro clean guitar one
e|----------------------------------------|
B|----------------------------------------|
G|----------------------------------------|
D|-8-----8-8-6----8-8------8-8-6----9-9-8-|
A|---99--------66-----9-------------------|
E|----------------------66-------99-------|

e|-------------------------------------|
B|-------------------------------------|
G|-------------------------------------|
D|----8-8-6----8-8------8-8-6----9-9-8-|
A|-99-------66-----9-------------------|
E|-------------------66-------99-------|

verse clean guitar one
e|------------------------------------------------------|
B|------------------------------------------------------|
G|------------------------------------------------------|
D|-------------88X-8-88-XX------------------------------|
A|-99X-9-99-XX-66X-6-66-XX-88X-8-88-XX-1111X-11-1111-XX-|
E|-99X-9-99-XX-------------66X-6-66-XX--9-9X--9--9-9-XX-|

e|------------------------------------------------------|
B|------------------------------------------------------|
G|------------------------------------------------------|
D|-------------88X-8-88-XX------------------------------|
A|-99X-9-99-XX-66X-6-66-XX-88X-8-88-XX-1111X-11-1111-XX-|
E|-99X-9-99-XX-------------66X-6-66-XX--9-9X--9--9-9-XX-|

e|------------------------------------------------------|
B|------------------------------------------------------|
G|------------------------------------------------------|
D|-------------88X-8-88-XX------------------------------|
A|-99X-9-99-XX-66X-6-66-XX-88X-8-88-XX-1111X-11-1111-XX-|
E|-99X-9-99-XX-------------66X-6-66-XX--9-9X--9--9-9-XX-|

e|------------------------------------------------------|
B|------------------------------------------------------|
G|------------------------------------------------------|
D|-------------88X-8-88-XX------------------------------|
A|-99X-9-99-XX-66X-6-66-XX-88X-8-88-XX-11-XX-XX-XX-X----|
E|-99X-9-99-XX-------------66X-6-66-XX--9-XX-XX-XX-X----|

pre-verse guitar one
e|-----------------------------------------------------------------------|
B|-----------------------------------------------------------------------|
G|---------------------------66666666---------------------------66666666-|
D|-9999999999999999-44444444-66666666-9999999999999999-88888888-66666666-|
A|-9999999999999999-44444444-44444444-9999999999999999-66666666-44444444-|
E|-7777777777777777-22222222----------7777777777777777-66666666----------|

chorus guitar two
e|-----------------------------------------------------|
B|-----------------------------------------------------|
G|------------------88888888---------------------------|
D|-1111111111111111-88888888-88888888-1111111111111111-|
A|--9-9-9-9-9-9-9-9-66666666-88888888-1111111111111111-|
E|--9-9-9-9-9-9-9-9----------66666666--9-9-9-9-9-9-9-9-|

chorus guitar one
e|-------------------------------------------------------------|
B|-------------------------------------------------------------|
G|------------------88888888-1010101010101010-1313131313131313-|
D|-1111111111111111-xxxxxxxx--x-x-x-x-x-x-x-x--x-x-x-x-x-x-x-x-|
A|--x-x-x-x-x-x-x-x-66666666--8-8-8-8-8-8-8-8-1111111111111111-|
E|--9-9-9-9-9-9-9-9--------------------------------------------|

chorus guitar two
e|-----------------------------------------------------|
B|-----------------------------------------------------|
G|------------------88888888---------------------------|
D|-1111111111111111-88888888-88888888-1111111111111111-|
A|--9-9-9-9-9-9-9-9-66666666-88888888-1111111111111111-|
E|--9-9-9-9-9-9-9-9----------66666666--9-9-9-9-9-9-9-9-|

chorus guitar one
e|-------------------------------------------------------------|
B|-------------------------------------------------------------|
G|------------------88888888-1010101010101010-1313131313131313-|
D|-1111111111111111-xxxxxxxx--x-x-x-x-x-x-x-x--x-x-x-x-x-x-x-x-|
A|--x-x-x-x-x-x-x-x-66666666--8-8-8-8-8-8-8-8-1111111111111111-|
E|--9-9-9-9-9-9-9-9--------------------------------------------|

pre-verse clean guitar one
e|--------------------------------------|
B|--------------------------------------|
G|--------------------------------------|
D|-----8-8-6----8-8------8-8-6----9-9-8-|
A|-99--------66-----9-------------------|
E|--------------------66-------99-------|

e|-------------------------------------|
B|-------------------------------------|
G|-------------------------------------|
D|----8-8-6----8-8------8-8-6----9-9-8-|
A|-99-------66-----9-------------------|
E|-------------------66-------99-------|

verse clean guitar one
e|------------------------------------------------------|
B|------------------------------------------------------|
G|------------------------------------------------------|
D|-------------88X-8-88-XX------------------------------|
A|-99X-9-99-XX-66X-6-66-XX-88X-8-88-XX-1111X-11-1111-XX-|
E|-99X-9-99-XX-------------66X-6-66-XX--9-9X--9--9-9-XX-|

e|------------------------------------------------------|
B|------------------------------------------------------|
G|------------------------------------------------------|
D|-------------88X-8-88-XX------------------------------|
A|-99X-9-99-XX-66X-6-66-XX-88X-8-88-XX-1111X-11-1111-XX-|
E|-99X-9-99-XX-------------66X-6-66-XX--9-9X--9--9-9-XX-|
[ Tab from: http://www.guitartabs.cc/tabs/b/bloodhound_gang/foxtrot_uniform_charlie_kilo_tab_ver_4.html ]
e|------------------------------------------------------|
B|------------------------------------------------------|
G|------------------------------------------------------|
D|-------------88X-8-88-XX------------------------------|
A|-99X-9-99-XX-66X-6-66-XX-88X-8-88-XX-1111X-11-1111-XX-|
E|-99X-9-99-XX-------------66X-6-66-XX--9-9X--9--9-9-XX-|

e|------------------------------------------------------|
B|------------------------------------------------------|
G|------------------------------------------------------|
D|-------------88X-8-88-XX------------------------------|
A|-99X-9-99-XX-66X-6-66-XX-88X-8-88-XX-11-XX-XX-XX-X----|
E|-99X-9-99-XX-------------66X-6-66-XX--9-XX-XX-XX-X----|

pre-verse guitar one
e|-----------------------------------------------------------------------|
B|-----------------------------------------------------------------------|
G|---------------------------66666666---------------------------66666666-|
D|-9999999999999999-44444444-66666666-9999999999999999-88888888-66666666-|
A|-9999999999999999-44444444-44444444-9999999999999999-66666666-44444444-|
E|-7777777777777777-22222222----------7777777777777777-66666666----------|

chorus guitar two
e|-----------------------------------------------------|
B|-----------------------------------------------------|
G|------------------88888888---------------------------|
D|-1111111111111111-88888888-88888888-1111111111111111-|
A|--9-9-9-9-9-9-9-9-66666666-88888888-1111111111111111-|
E|--9-9-9-9-9-9-9-9----------66666666--9-9-9-9-9-9-9-9-|

chorus guitar one
e|-------------------------------------------------------------|
B|-------------------------------------------------------------|
G|------------------88888888-1010101010101010-1313131313131313-|
D|-1111111111111111-xxxxxxxx--x-x-x-x-x-x-x-x--x-x-x-x-x-x-x-x-|
A|--x-x-x-x-x-x-x-x-66666666--8-8-8-8-8-8-8-8-1111111111111111-|
E|--9-9-9-9-9-9-9-9--------------------------------------------|

chorus guitar two
e|-----------------------------------------------------|
B|-----------------------------------------------------|
G|------------------88888888---------------------------|
D|-1111111111111111-88888888-88888888-1111111111111111-|
A|--9-9-9-9-9-9-9-9-66666666-88888888-1111111111111111-|
E|--9-9-9-9-9-9-9-9----------66666666--9-9-9-9-9-9-9-9-|

chorus guitar one
e|-------------------------------------------------------------|
B|-------------------------------------------------------------|
G|------------------88888888-1010101010101010-1313131313131313-|
D|-1111111111111111-xxxxxxxx--x-x-x-x-x-x-x-x--x-x-x-x-x-x-x-x-|
A|--x-x-x-x-x-x-x-x-66666666--8-8-8-8-8-8-8-8-1111111111111111-|
E|--9-9-9-9-9-9-9-9--------------------------------------------|

bridge guitar one 
e|--------------------------------------|
B|--------------------------------------|
G|--------------------------------------|
D|-----8-8-6----8-8------8-8-6----9-9-8-|
A|-99--------66-----9-------------------|
E|--------------------66-------99-------|

bridge guitar two
e|-----------------------------------------------------|
B|-----------------------------------------------------|
G|------------------88888888---------------------------|
D|-1111111111111111-88888888-88888888-1111111111111111-|
A|--9-9-9-9-9-9-9-9-66666666-88888888-1111111111111111-|
E|--9-9-9-9-9-9-9-9----------66666666--9-9-9-9-9-9-9-9-|

bridge guitar one
e|-------------------------------------|
B|-------------------------------------|
G|-------------------------------------|
D|----8-8-6----8-8------8-8-6----9-9-8-|
A|-99-------66-----9-------------------|
E|-------------------66-------99-------|

bridge guitar two
e|-----------------------------------------------------|
B|-----------------------------------------------------|
G|------------------88888888---------------------------|
D|-1111111111111111-88888888-88888888-1111111111111111-|
A|--9-9-9-9-9-9-9-9-66666666-88888888-1111111111111111-|
E|--9-9-9-9-9-9-9-9----------66666666--9-9-9-9-9-9-9-9-|

outro guitar one
e|-------------------------------------|
B|-------------------------------------|
G|-------------------------------------|
D|----8-8-6----8-8------8-8-6----9-9-8-|
A|-99-------66-----9-------------------|
E|-------------------66-------99-------|

outro guitar two
e|-----------------------------------------------------|
B|-----------------------------------------------------|
G|------------------88888888---------------------------|
D|-1111111111111111-88888888-88888888-1111111111111111-|
A|--9-9-9-9-9-9-9-9-66666666-88888888-1111111111111111-|
E|--9-9-9-9-9-9-9-9----------66666666--9-9-9-9-9-9-9-9-|

outro guitar three
e|-----------------------------------------------------|
B|-13~--------------15~------17~------20~--------------|
G|-----------------------------------------------------|
D|-----------------------------------------------------|
A|-----------------------------------------------------|
E|-----------------------------------------------------|

outro guitar one
e|-------------------------------------|
B|-------------------------------------|
G|-------------------------------------|
D|----8-8-6----8-8------8-8-6----9-9-8-|
A|-99-------66-----9-------------------|
E|-------------------66-------99-------|

outro guitar two
e|-----------------------------------------------------|
B|-----------------------------------------------------|
G|------------------88888888---------------------------|
D|-1111111111111111-88888888-88888888-1111111111111111-|
A|--9-9-9-9-9-9-9-9-66666666-88888888-1111111111111111-|
E|--9-9-9-9-9-9-9-9----------66666666--9-9-9-9-9-9-9-9-|

outro guitar three
e|-----------------------------------------------------|
B|-13~--------------15~------17~------20~--------------|
G|-----------------------------------------------------|
D|-----------------------------------------------------|
A|-----------------------------------------------------|
E|-----------------------------------------------------|

end on
e|----|
B|----|
G|----|
D|-11-|
A|--9-|
E|--9-|

thats it
have fun and R A T E !
mail:el_diablo7th@freenet.de