Bloodhound Gang - Foxtrot Uniform Charlie Kilo Chords & Tabs

 

Foxtrot Uniform Charlie Kilo Chords & Tabs

Bloodhound Gang Chords & Tabs

Version: 3 Type: Tab 0 ratings
1 star 2 stars 3 stars 4 stars 5 stars
comments

Foxtrot Uniform Charlie Kilo Tab

Song - Foxtrot Uniform Charlie Kilo
Band - Bloodhound Gang
Tabbed by Eren "SAFFAH" Ogrul


[00:00]-[00:13]
e|--------------------------------------------------|
B|--------------------------------------------------|
G|--------------------------------------------------|
D|------8--8-6------8--8--------8--8-6------9--9-8--|
A|--9-9---------6-6------9--------------------------|
E|--------------------------6-6---------9-9---------|


[00:14]-[00:41]
e|------------------------------------------------------------|-----------|
B|------------------------------------------------------------|-----------|
G|--12-12--12-12-12--9-9--9-9-9-------------------------------|--x-x-x-x--|
D|--12-12--12-12-12--9-9--9-9-9--9-9--9-9-9--12-12--12-12-12--|--x-x-x-x--|
A|--10-10--10-10-10--7-7--7-7-7--9-9--9-9-9--12-12--12-12-12--|--x-x-x-x--|
E|-------------------------------7-7--7-7-7--10-10--10-10-10--|-----------|

[00:42]-[00:55]
e|-------------------------------------------------------------------------------------|
B|-------------------------------------------------------------------------------------|
G|-----------------------------------12-12-12-12-12-12-12-12---------------------------|
D|--9-9-9-9-9-9-9-9-9-9-9-9-9-9-9-9--12-12-12-12-12-12-12-12--12-12-12-12-12-12-12-12--|
A|--9-9-9-9-9-9-9-9-9-9-9-9-9-9-9-9--10-10-10-10-10-10-10-10--12-12-12-12-12-12-12-12--|
E|--7-7-7-7-7-7-7-7-7-7-7-7-7-7-7-7---------------------------10-10-10-10-10-10-10-10--|


e|-----------------------------------------------------------------------------|
B|-----------------------------------------------------------------------------|
G|-----------------------------------9-9-9-9-9-9-9-9---------------------------|
D|--9-9-9-9-9-9-9-9-9-9-9-9-9-9-9-9--9-9-9-9-9-9-9-9--12-12-12-12-12-12-12-12--|
A|--9-9-9-9-9-9-9-9-9-9-9-9-9-9-9-9--7-7-7-7-7-7-7-7--12-12-12-12-12-12-12-12--|
E|--7-7-7-7-7-7-7-7-7-7-7-7-7-7-7-7-------------------10-10-10-10-10-10-10-10--|


[00:56]-[01:09]
e|--------------------------------------------------------------------------------------|
B|--------------------------------------------------------------------------------------|
G|--12-12-12-12-12-12-12-12--9-9-9-9-9-9-9-9--------------------------------------------|
D|---X--X--X--X--X--X--X--X--X-X-X-X-X-X-X-X--9-9-9-9-9-9-9-9--12-12-12-12-12-12-12-12--|
A|--10-10-10-10-10-10-10-10--7-7-7-7-7-7-7-7--X-X-X-X-X-X-X-X---X--X--X--X--X--X--X--X--|
E|--------------------------------------------7-7-7-7-7-7-7-7--10-10-10-10-10-10-10-10--|

[ Tab from: http://www.guitartabs.cc/tabs/b/bloodhound_gang/foxtrot_uniform_charlie_kilo_tab_ver_3.html ]
[01:10]-[01:23]
e|----------------------------------------------------|
B|----------------------------------------------------|
G|----------------------------------------------------|
D|------8--8-6------8--8--------8--8-6------9--9-8----|
A|--9-9---------6-6------9----------------------------|
E|--------------------------6-6---------9-9-----------|

[01:24]-[01:51]
e|------------------------------------------------------------|-----------|
B|------------------------------------------------------------|-----------|
G|--12-12--12-12-12--9-9--9-9-9-------------------------------|--x-x-x-x--|
D|--12-12--12-12-12--9-9--9-9-9--9-9--9-9-9--12-12--12-12-12--|--x-x-x-x--|
A|--10-10--10-10-10--7-7--7-7-7--9-9--9-9-9--12-12--12-12-12--|--x-x-x-x--|
E|-------------------------------7-7--7-7-7--10-10--10-10-10--|-----------|

[01:52]-[02:05]
e|-------------------------------------------------------------------------------------|
B|-------------------------------------------------------------------------------------|
G|-----------------------------------12-12-12-12-12-12-12-12---------------------------|
D|--9-9-9-9-9-9-9-9-9-9-9-9-9-9-9-9--12-12-12-12-12-12-12-12--12-12-12-12-12-12-12-12--|
A|--9-9-9-9-9-9-9-9-9-9-9-9-9-9-9-9--10-10-10-10-10-10-10-10--12-12-12-12-12-12-12-12--|
E|--7-7-7-7-7-7-7-7-7-7-7-7-7-7-7-7---------------------------10-10-10-10-10-10-10-10--|


e|-----------------------------------------------------------------------------|
B|-----------------------------------------------------------------------------|
G|-----------------------------------9-9-9-9-9-9-9-9---------------------------|
D|--9-9-9-9-9-9-9-9-9-9-9-9-9-9-9-9--9-9-9-9-9-9-9-9--12-12-12-12-12-12-12-12--|
A|--9-9-9-9-9-9-9-9-9-9-9-9-9-9-9-9--7-7-7-7-7-7-7-7--12-12-12-12-12-12-12-12--|
E|--7-7-7-7-7-7-7-7-7-7-7-7-7-7-7-7-------------------10-10-10-10-10-10-10-10--|


[02:06]-[02:20]
e|--------------------------------------------------------------------------------------|
B|--------------------------------------------------------------------------------------|
G|--12-12-12-12-12-12-12-12--9-9-9-9-9-9-9-9--------------------------------------------|
D|---X--X--X--X--X--X--X--X--X-X-X-X-X-X-X-X--9-9-9-9-9-9-9-9--12-12-12-12-12-12-12-12--|
A|--10-10-10-10-10-10-10-10--7-7-7-7-7-7-7-7--X-X-X-X-X-X-X-X---X--X--X--X--X--X--X--X--|
E|--------------------------------------------7-7-7-7-7-7-7-7--10-10-10-10-10-10-10-10--|

[02:20]-[02:50]
e|--------------------------------------------------|
B|--------------------------------------------------|
G|--------------------------------------------------|
D|------8--8-6------8--8--------8--8-6------9--9-8--|
A|--9-9---------6-6------9--------------------------|
E|--------------------------6-6---------9-9---------|
Comments