Bloodhound Gang - Foxtrot Uniform Charlie Kilo Chords & Tabs

 

Foxtrot Uniform Charlie Kilo Chords & Tabs

Bloodhound Gang Chords & Tabs

Version: 1 Type: Tab 11 ratings
1 star 2 stars 3 stars 4 stars 5 stars
comments

Foxtrot Uniform Charlie Kilo Tab

Tabbed by - Brandon Matley
Song Name - Foxtrot Uniform Charlie Kilo
By - Bloodhound Gang


This is my first tab...really... i hope it's all correct. its a great song...enjoy.
Any corrections or comments - brandon_matley@yahoo.com


Intro 
e|--------------------------------------------------|
B|--------------------------------------------------|
G|--------------------------------------------------|
D|------8--8-6------8--8--------8--8-6------9--9-8--|
A|--9-9---------6-6------9--------------------------|
E|--------------------------6-6---------9-9---------|


Verse 1
e|----------------------------------------------------------|
B|----------------------------------------------------------|
G|-11-11--11-11-11--8-8--8-8-8------------------------------|
D|-11-11--11-11-11--8-8--8-8-8--8-8--8-8-8--11-11--11-11-11-|
A|-9--9---9--9--9---6-6--6-6-6--8-8--8-8-8--11-11--11-11-11-|
E|------------------------------6-6--6-6-6--9--9---9--9--9--|
 play 3 times then...


e|----------------------------------------------------------|
B|----------------------------------------------------------|
G|-11-11--11-11-11--8-8--8-8-8------------------------------|
D|-11-11--11-11-11--8-8--8-8-8--8-8--8-8-8--11--------------|
A|-9--9---9--9--9---6-6--6-6-6--8-8--8-8-8--11--------------|
E|------------------------------6-6--6-6-6--9---------------|
 play once


Chorus
e|---------------------------------------------------------------------------------|
B|---------------------------------------------------------------------------------|
G|--------------------------11-11-11-11-11-11-11-11-11-----------------------------|
D|-8-8-8-8-8-8-8-8-8-8-8-8--11-11-11-11-11-11-11-11-11--11-11-11-11-11-11-11-11-11-|
A|-8-8-8-8-8-8-8-8-8-8-8-8--9--9--9--9--9--9--9--9--9---11-11-11-11-11-11-11-11-11-|
E|-6-6-6-6-6-6-6-6-6-6-6-6------------------------------9--9--9--9--9--9--9--9--9--|



e|------------------------------------------------------------------------------------|
B|------------------------------------------------------------------------------------|
G|--------------------------------------8-8-8-8-8-8-8-8-8-----------------------------|
D|-8-8-8-8-8-8-8-8-8-8-8-8-8-8-8-8-8-8--8-8-8-8-8-8-8-8-8--11-11-11-11-11-11-11-11-11-|
A|-8-8-8-8-8-8-8-8-8-8-8-8-8-8-8-8-8-8--6-6-6-6-6-6-6-6-6--11-11-11-11-11-11-11-11-11-|
E|-6-6-6-6-6-6-6-6-6-6-6-6-6-6-6-6-6-6---------------------9--9--9--9--9--9--9--9--9--|


[ Tab from: http://www.guitartabs.cc/tabs/b/bloodhound_gang/foxtrot_uniform_charlie_kilo_tab.html ]
e|---------------------------------------|
B|---------------------------------------|
G|-11-11-11-11-11-11-11--8-8-8-8-8-8-8---|
D|-11-11-11-11-11-11-11--8-8-8-8-8-8-8---|
A|-9--9--9--9--9--9--9---6-6-6-6-6-6-6---|
E|---------------------------------------|
 play chorus twice

Intro 
e|--------------------------------------------------|
B|--------------------------------------------------|
G|--------------------------------------------------|
D|------8--8-6------8--8--------8--8-6------9--9-8--|
A|--9-9---------6-6------9--------------------------|
E|--------------------------6-6---------9-9---------|


Verse 
e|----------------------------------------------------------|
B|----------------------------------------------------------|
G|-11-11--11-11-11--8-8--8-8-8------------------------------|
D|-11-11--11-11-11--8-8--8-8-8--8-8--8-8-8--11-11--11-11-11-|
A|-9--9---9--9--9---6-6--6-6-6--8-8--8-8-8--11-11--11-11-11-|
E|------------------------------6-6--6-6-6--9--9---9--9--9--|
 play 3 times...


e|----------------------------------------------------------|
B|----------------------------------------------------------|
G|-11-11--11-11-11--8-8--8-8-8------------------------------|
D|-11-11--11-11-11--8-8--8-8-8--8-8--8-8-8--11-x-x-x-x-x-x--|
A|-9--9---9--9--9---6-6--6-6-6--8-8--8-8-8--11-x-x-x-x-x-x--|
E|------------------------------6-6--6-6-6--9--x-x-x-x-x-x--|
 play once

Chorus
e|---------------------------------------------------------------------------------|
B|---------------------------------------------------------------------------------|
G|--------------------------11-11-11-11-11-11-11-11-11-----------------------------|
D|-8-8-8-8-8-8-8-8-8-8-8-8--11-11-11-11-11-11-11-11-11--11-11-11-11-11-11-11-11-11-|
A|-8-8-8-8-8-8-8-8-8-8-8-8--9--9--9--9--9--9--9--9--9---11-11-11-11-11-11-11-11-11-|
E|-6-6-6-6-6-6-6-6-6-6-6-6------------------------------9--9--9--9--9--9--9--9--9--|



e|------------------------------------------------------------------------------------|
B|------------------------------------------------------------------------------------|
G|--------------------------------------8-8-8-8-8-8-8-8-8-----------------------------|
D|-8-8-8-8-8-8-8-8-8-8-8-8-8-8-8-8-8-8--8-8-8-8-8-8-8-8-8--11-11-11-11-11-11-11-11-11-|
A|-8-8-8-8-8-8-8-8-8-8-8-8-8-8-8-8-8-8--6-6-6-6-6-6-6-6-6--11-11-11-11-11-11-11-11-11-|
E|-6-6-6-6-6-6-6-6-6-6-6-6-6-6-6-6-6-6---------------------9--9--9--9--9--9--9--9--9--|



e|--------------------------------------|
B|--------------------------------------|
G|-11-11-11-11-11-11-11--8-8-8-8-8-8-8--|
D|-11-11-11-11-11-11-11--8-8-8-8-8-8-8--|
A|-9--9--9--9--9--9--9---6-6-6-6-6-6-6--|
E|--------------------------------------|
 play chorus twice

 
Comments