Bloodhound Gang - Ballad Of Chasey Lain Chords & Tabs

 

Ballad Of Chasey Lain Chords & Tabs

Bloodhound Gang Chords & Tabs

Version: 1 Type: Bass Tab 0 ratings
1 star 2 stars 3 stars 4 stars 5 stars
comments

Ballad Of Chasey Lain Bass Tab

#----------------------------------PLEASE NOTE--------------------------------#
#This file is the author's own work and represents their interpretation of the#
#song. You may only use this file for private study, scholarship, or research.#
#-----------------------------------------------------------------------------#
#-- File created with Instab - http://www.pconline.com/~smcarey/instab.html --#
#-----------------------------------------------------------------------------#

Author/Artist: Bloodhound Gang
Title: The Ballad of Chasey Lain (Bass tab)
Album: Hooray for Boobies
Transcribed by: Florian Zisler
Email: florian_zisler@web.de

This is the right bass tab for this song. Normal Tuning (EADG)

-|--------------------------------|---------------------|---------------------
-|--------------------------------|---------------------|---------------------
-|--------------------------------|---------------------|---------------------
-|--------2-2-22------------------|-----2-2-22----------|---------------------
-|-4-4-442------2------2------2h4-|4-442------2------2--|---------------------
-|---------------5-5-55-4-4-44----|------------5-5-55-4-|---------------------
 Intro                                                  (little break)        

-|---------------------------------|----------------------------------|-------
-|---------------------------------|----------------------------------|-------
-|---------------------------------|----------------------------------|-------
-|---------22222222----------------|---------22222222------77------66-|-------
-|-44444444------------------------|-44444444----------4477----3366---|-------
-|-----------------555555544444444-|-----------------55------44-------|-------
 Verse (3 times)                                                              
[ Tab from: http://www.guitartabs.cc/tabs/b/bloodhound_gang/ballad_of_chasey_lain_btab.html ]
-|--------------------------------------------|----------|--------------------
-|--------------------------------------------|----------|--------------------
-|--------------------------------------------|----------|--------------------
-|---------22222222--------------------------2|--4-4-442-|--------------------
-|-44444444-------------------------44444444--|---------4|--------------------
-|-----------------5555555544444444-----------|----------|--------------------
 (after the 3rd time there is a short break and the it goes "P.S....")        

-|--------------------------|-----------------------------------|-------------
-|--------------------------|-----------------------------------|-------------
-|--------------------------|-----------------------------------|-------------
-|--------------------------|-----------------------------------|-------------
-|-222222222222222244444444-|------------------22222222---------|-------------
-|--------------------------|--0000000000000000--------22222222-|-------------
  Mom and dad.... Now show them.....                                          

-|--------------------------|-----------------------------|-------------------
-|--------------------------|-----------------------------|-------------------
-|--------------------------|-----------------------------|-------------------
-|--------------------------|-----------------------------|-------------------
-|-222222222222222244444444-|------------------22222222---|-------------------
-|--------------------------|--0000000000000000---------2-|-------------------
                                                           Would you f***...  

-|---------------------------------------------------|------------------------
-|---------------------------------------------------|------------------------
-|---------------------------------------------------|------------------------
-|--------2-2-22----------------------2-2-22---------|------------------------
-|-4-4-442------2------2------24-4-442------2------2-|------------------------
-|---------------5-5-55-4-4-44---------------5-5-55-4|------------------------
 Outro                                                                        

Comments