Bloodhound Gang - Bad Touch Chords & Tabs

 

Bad Touch Chords & Tabs

Bloodhound Gang Chords & Tabs

Version: 5 Type: Tab 0 ratings
1 star 2 stars 3 stars 4 stars 5 stars
comments

Bad Touch Tab

name: DJ

artist: the Bloodhound Gang

SongTitle: The Bad Touch
[ Tab from: http://www.guitartabs.cc/tabs/b/bloodhound_gang/bad_touch_tab_ver_5.html ]
Tabs: The Bad Touch by The Bloodhound Gang  Album: Hooray for 
Boobies(2000)
This one's kinda easy, but the guitar gets buried in the mix so it's 
hard to
pick out, but you're mostly strumming chords throughout anyways so it 
doesn't
matter.
:
# riff # X2  !play with palm-muting!  /-slide up
E|----------------------------------------------------------------
B|----------------------------------------------------------------
G|------------------------------------3-3-------------------------
D|------------3----------3---5--------------5-3-------3-----------
A|--3-3-3-3-6-----3-6-6---6---3-3h6p3------------3-6----6--3-6/8--
e|----------------------------------------------------------------
:
# verse # X4  !play all notes X4 palm-muted!
E|------------------
B|------------------
G|------------------
D|--5---8-----------
A|--3---6---8---6---
e|----------6---4---
:
# chorus # X4  !play all notes X8!
E|------------------
B|------------------
G|--5---8-----------
D|--5---8---8---6---
A|--3---6---8---6---
e|----------6---4---
:
# bridge # X2   v=heavy vibrato
E|--------------------------
B|--------------------------
G|--------------------------
D|--------------------------
A|--3vvvv6vvvv13vvvv11vvvv--
e|--------------------------
:
Then play riffX2, verseX4, chorusX4, bridgeX2, then pause, 
then play chorusX4 & play the bridge over & over while fading out.
:
And then we do it doggy style so we can both watch "X-files"..gosh, I 
love
that line :x
Tabbed by DJ(Modium@aol.com) 6/04/2000                 

For Marisol :)
Comments