Bloodhound Gang - Along Comes Mary Chords & Tabs

 

Along Comes Mary Chords & Tabs

Bloodhound Gang Chords & Tabs

Version: 7 Type: Tab 0 ratings
1 star 2 stars 3 stars 4 stars 5 stars
comments

Along Comes Mary Tab

Along Comes Mary by the Bloodhound Gang
Standard Tuning
Tabbed by Aaron Soat
^ = palm muted

Intro
-----------------------------------------|
-----------------------------------------|
-----------------------------------------|
--------55-777777-55-888888-77-555555-77-|
-555555-33-555555-33-666666-55-333333-55-|
-333335----------------------------------|

Verse
-------------------------------------|
-------------------------------------|
-------------------------------------|
----------77777777-88888888-55555555-|
-55555555-55555555-66666666-33333333-|
-33333333----------------------------|
 ^^^^^^^^ ^^^^^^^^ ^^^^^^^^ ^^^^^^^^

Bridge 1
-------------------|
-------------------|
-------------------|
-------------------|
-55555555-88888888-|
-33333333-66666666-|
 ^^^^^^^^ ^^^^^^^^

Bridge 2
---------------------------------------|
---------------------------------------|
---------------------------------------|
------7777-8888-5555-------------------|
-5555-5555-6666-3333-55555555-88888888-|
-3333----------------33333333-66666666-|
                     ^^^^^^^^ ^^^^^^^^
[ Tab from: http://www.guitartabs.cc/tabs/b/bloodhound_gang/along_comes_mary_tab_ver_7.html ]
Bridge 3
--------------------|
--------------------|
--------------------|
-7788-7755-77-----3-|
-5566-5533-5555-331-|
-------------33-11--|

End part 1
-------------------------------------|
-------------------------------------|
-------------------------------------|
-77888888-77555555-77---------333333-|
-55666666-55333333-55555555-33111111-|
---------------------333333-11-------|
 ^^^^^^^^ ^^^^^^^^ ^^^^^^^^ ^^^^^^^^

End part 2
-------------------------------------|
-------------------------------------|
-------------------------------------|
-77888888-77555555-77---------333333-|
-55666666-55333333-55555555-33111111-|
---------------------333333-11-------|

End part 3
--------------------------------|
--------------------------------|
--------------------------------|
-77888888-77555555-77---------3-|
-55666666-55333333-55555555-331-|
---------------------333333-11--|

Play Like This:

Intro (2x)
Verse (2x)
Bridge 1 (2x)
Bridge 2 (2x)
Bridge 3 (1x)

Intro (2x)
Verse (2x)
Bridge 1 (2x)
Bridge 2 (2x)
Bridge 3 (1x)

Intro (2x)
Verse (2x)
Bridge 1 (2x)
Bridge 2 (2x)
Bridge 3 (1x)

Intro (x2)
Bridge 3 (2x)
End part 1 (2x)
End part 2 (1x)
End part 3 (1x)

-Soat
Comments