Blood Orange - Scooled Chords & Tabs

 

Scooled Chords & Tabs

Blood Orange Chords & Tabs

Version: 1 Type: Bass Tab 0 ratings
1 star 2 stars 3 stars 4 stars 5 stars
comments

Scooled Bass Tab

Blood Orange - S'cooled

TUNING: EADG (Standard)

  RIFF 1:                              RIFF 2:
||------------------------------------|----------------------------------|
||.----------------------------------.|----------------------------------|
||.--3--2--0--------0----------------.|---/5---5-------------------------|
||---------------3----/7----0--0---0--|----------3---3-3---3-3---3-3---3-|
[ Tab from: http://www.guitartabs.cc/tabs/b/blood_orange/scooled_btab.html ]
  RIFF 3:
||------------------------------------------------||
||.----------------------------------------------.||
||.-3p2(0)--0-/5-3---------------2----/7\----/7\-.||
||--------3--------5-3----0-3--X----0------0------||


I'm kinda sloppy with the timings, but listen to it and you'll find the groove, as well
as how hard or soft to hit each note. Last part I'm not sure of, could be a note on the
6th fret pre-bent to the 7th and returned. I'm not too confident on that part because 
bass in my secondary instrument.
Comments