Blood For Blood - Chaos Chords & Tabs

 

Chaos Chords & Tabs

Blood For Blood Chords & Tabs

Version: 1 Type: Bass Tab 0 ratings
1 star 2 stars 3 stars 4 stars 5 stars
comments

Chaos Bass Tab

Artist: Blood For Blood
Title: Chaos

Intro
G|---------------|
D|---------------|
G|---------------| 
D|-0--0--0--0----|

Verse
G|---------------|
D|---------------|
G|---------------| 
D|-3--3--0--0----|

G|---------------|
D|---------------|
G|---------------| 1x
D|-0--0--0--0----| 


and so on ... Have fun!!!
HARDCORE STILL LIVES
[ Tab from: http://www.guitartabs.cc/tabs/b/blood_for_blood/chaos_btab.html ]
Refrain
G|-------------------------|
D|-------------------------|
G|-------------------------| 2x 
D|-00-00-00----00-11-00----|

G|---------------|
D|---------------|
G|---------------| 4x
D|-0-0-3-0-0-6---|

G|---------------|
D|---------------|
G|---------------| 2x 
D|-0--0--3--3----|

Refrain
G|-------------------------|
D|-------------------------|
G|-------------------------| 2x 
D|-00-00-00----00-11-00----|

G|---------------|
D|---------------|
G|---------------| 4x
D|-0-0-3-0-0-6---|
Comments