Blood Brothers - Trash Flavored Trash Chords & Tabs

 

Trash Flavored Trash Chords & Tabs

Blood Brothers Chords & Tabs

Version: 1 Type: Tab 0 ratings
1 star 2 stars 3 stars 4 stars 5 stars
comments

Trash Flavored Trash Tab

Intro:

E -------------------------------------------------|
B -------------------------------------------------|
G -------------------------------------------------|
D ----8--------12----------5-----------------------|
A ----8--x4----12---x4-----5-----------------------|
E ----6--------10----------3-----------------------|

Verse:

E --------------------------------------|
B --------------------------------------|
G --------------------------------------|
D --------------------------------------|
A --------------------------------------|
E ---6-6-6-6-6-6-6-5--------------------|


Chorus:

E -------------------------------------------------|
B -------------------------------------------------|
G -------------------------------------------------|
D ----8--------12----------5-----------------------|
A ----8--x4----12---x4-----5-----------------------|
E ----6--------10----------3-----------------------|

E -------------------------------------------------|
B -------------------------------------------------|
G -------------------------------------------------|
D ----8--------12----------5-----------------------|
A ----8--x4----12---x4-----5-----------------------|
E ----6--------10----------3-----------------------|
[ Tab from: http://www.guitartabs.cc/tabs/b/blood_brothers/trash_flavored_trash_tab.html ]
E -------------------------------------------------|
B -------------------------------------------------|
G -------------------------------------------------|
D ----8--------12----------5-----------------------|
A ----8--------12----------5-----------------------|
E ----6--------10----------3-----------------------|

E -------------------------------------------------|
B -------------------------------------------------|
G -------------------------------------------------|
D ----8--------12----------5-----------------------|
A ----8--x4----12---x4-----5-----------------------|
E ----6--------10----------3-----------------------|

other verse:

E -------------------------------------------------|
B ------------------10-----------------------------|
G -----7-----10------------------------------------|
D -------------------------------------------------|
A -------------------------------------------------|
E -------------------------------------------------|


End:

E -------------------------------------------------|
B -------------------------------------------------|
G -------------------------------------------------|
D -------------------------------------------------|
A -------------------------------------------------|
E ---6-6-6---3-3-3---5-5-5---2-2-2-----------------|
Comments