Blood Brothers - This Adultery Is Ripe Chords & Tabs

 

This Adultery Is Ripe Chords & Tabs

Blood Brothers Chords & Tabs

Version: 1 Type: Bass Tab 0 ratings
1 star 2 stars 3 stars 4 stars 5 stars
comments

This Adultery Is Ripe Bass Tab

   
Artist: The Blood Brothers
Album: This Adultery Is Ripe

1.Rescue
Verse
G|---------------------------------|
D|---------------------------------|
A|-557787-557787-55555555-55555555-| x3
D|---------------------------------|

G|---------------------------------|
D|---------------------------------|
A|-557787-557787-55555555----------|
D|------------------------77777777-|

Chorus (Come in on second bar)
G|-----------------------------------------|
D|-----------------------------------------|
A|--555--555--555-------555--555--555------|
D|-6----6----6----6035-6----6----6----6060-|

G|-----------------------------------------|
D|-----------------------------------------|
A|--555--555--555-------555--555--555------| x2
D|-6----6----6----6060-6----6----6----6060-|

G|---------------------|
D|---------------------|
A|--555--555--555------|
D|-6----6----6----6060-|

Bridge
G|---------------------------------|
D|---------------------------------|
A|-5-5-5-5-5-5-5-5-5-5-5-5-5-5-5-5-| x2
D|---------------------------------|

G|-------------------------------------|
D|-------------------------------------|
A|-55555555-55555555----------66666666-| x3
D|-------------------77777777----------|

Final Chorus (Come in on second bar)
G|-----------------------------------------|
D|-----------------------------------------|
A|--555--555--555-------555--555--555--5---|
D|-6----6----6----6035-6----6----6----6-60-|

G|-----------------------------------------|
D|-----------------------------------------|
A|--555--555--555--5----555--555--555--5---|
D|-6----6----6----6-6x-6----6----6----6-6x-|

G|--------------------|
D|--------------------|
A|--555--555--555--5--|
D|-6----6----6----6-6-|

------------------------------------------------------------------------
2.Doctor! Doctor!

G------------------------------------|
D------------------------------------|
A-55555555555555555-88888888999999999
E------------------------------------
     you will hear the switch
G---------------------------------------------|----------------------------|
D---------------------------------------------|----------------------------| 4x
A---------------------------------------------|------------------566-------|
E-88-7-88-7-88-7-88-7-88-7-88-7-88-7-88-7-88-7|-88-7-88-7-88-7-8-----------|

G-------------------------------------------------------------------------|
D-------------------------------------------------------------------------|
A-------------------------------------------------------------------------|
E-88--88--88--88--88--88--88--88-10~-1010-1010-1010-1010-1010-99-99-99-99-|

G---------------------------------|---------------------------------------------------------|
D---------------------------------|---------------------------------------------------------|
A---------------------------------|---------------------------------------------------------|
E-1010-1010-1010-1010-99-99-99-99-|10101010-10101010-10101010-10101010-9999-9999-9999-9999--|

G--------------------------   ------------------------------------------------|
D--------------------------   ------------------------------------------------| weird
A5555555-------------------   --555---55555--555-----55-55-55-55-55-55-55-55--| timing
E-------55555555-6666666 4x   ------------------555---------------------------|

------------------------------------------------------------------------------------------
3.The Face In The Embryo

G-------------------------------------------|
D-------------------------------------------|
A-------------------------------------------|
E-0-78-0-87-88-88-88-88-078-087-88-88-88-88-| A lot of times

G-----------------------------------|
D-----------------------------------|   You got to listen here to get this part real good
A-----------------------------------|
E-8888-8888-8-8888-888-88-88888-888-|

G-------------------------------------------------|------------------------------------|
D-------------------------------------------------|------------------------------------|
A-------------------------------------------------|------------------------------------|
E8888-10-12-12-12-12-12-12-12-10-10-10-10-10-10-10|12-12-12-12-12-10-10-10-10-10-10-10-|

G-------------------------------|
D-------------------------------|
A-7-5-55555-7-5555555-7-5555555-|
E-------------------------------|

G-------------------------------------------------------------------|
D-------------------------------------------------------------------|
A------------------------555555-6666666-----------------------------|
E88888888-33333333-444444---------------88888888-33333333-4444444---|

G------------------------------|
D------------------------------|
A-555555-666666/8888888888888--|
E------------------------------|

------------------------------------------------------------------------------------------
4.James Brown

Verse
G|-------------------------|
D|-------------------------|
A|-9999--9999--9999--9999--|
E|-------------------------|

G|--------------------------|
D|--------------------------|
A|--------------------------| x2
E|-77766-77766-77766-777999-|

G|-------------------------|
D|-------------------------|
A|-9999--9999--9999--9999--|
E|-------------------------|

G|--------------------------|
D|--------------------------|
A|--------------------------| x2
E|-77766-77766-77766-777999-|

G|-----------------------|
D|-----------------------|
A|-9999--9999--9999--9-9-|
E|-----------------------|

G|-----------------------------------------------------------------------|
D|-----------------------------------------------------------------------|
A|------------------------------------------------------------------9999-|
E|-777777-777777-99999999-99999999-777777-7777777-88888888-88888888------|

Outro x4
G|---------------------|
D|---------------------|
A|---------------------|
E|-0454------------045-|

------------------------------------------------------------------------------------------
5.Mutiny On The Ark Of The Blood Brothers

/= slide up
\\= slide down
x= mute
^^= double digit
[ Tab from: http://www.guitartabs.cc/tabs/b/blood_brothers/this_adultery_is_ripe_btab.html ]
Verse x4
G|-------------------------------------------------------------------------|
D|-------------------------------------------------------------------------|
A|-------------------------------------------------------------------------|
E|-11111111-11111111-22222222-22222222-55555555-55555555-55555555-55555555-|

Chorus (Very fast)
G|------------------|
D|------------------|
A|------------| x16-|
E|-0-/10\\-000------|
      ^^
Outro (Watch the rhythm)
G|-----------------------------------------------------|
D|-----------------------------------------------------|
A|-----------------------------------------------------|
E|-5----------5xxxx5xxxx5xxxx5xxxx5xxxx5xxxx5xxxx5xxxx-|

G|--------------------------------------------------------|
D|--------------------------------------------------------|
A|--------------------------------------------------------| x2
E|-54-4-4-54-4-4-54-4-4-54-4-4-00000000-00000000-00000000-|

G|-----|
D|-----|
A|-----|
E|-5~--|

------------------------------------------------------------------------------------------
6.Jordon Billie Pets The Wild Horse's Mane


^^= Double Digit
/= Slide Up
\\= Slide Down

Verse x5
G|-----------------------------------------------|
D|-----------------------------------------------|
A|-333/653355-333/6533555-333/653355-333/6533555-|
E|-----------------------------------------------|

Chorus
G|--------------------------------------------------|
D|--------------------------------------------------|
A|--------------------------------------------------|
E|-444/101010101010\\888\\444/101010101010/111111\\444-|
       ^^^^^^^^^^^^         ^^^^^^^^^^^^ ^^^^^^
G|-------------------------------------------------------------------------|
D|-------------------------------------------------------------------------|
A|-------------------------------------------------------------55555-------|
E|-444/101010101010\\888\\444/101010101010/111111/141414444--44------------|
       ^^^^^^^^^^^^         ^^^^^^^^^^^^ ^^^^^^ ^^^^^^
Verse x2

Outro
G|--------------------------------------------------------------------------|
D|--------------------------------------------------------------------------|
A|--------------------------------------------------------------------------|
E|-44444444-44444444-44444444-44444444-44444444-44444444-44444444-44444/777-|

G|-------------------------------------|
D|-------------------------------------|
A|-22222222-22222222-44444444-55555555-| x4
E|-------------------------------------|

G|-----------|
D|-----------|
A|-444444444-|
E|-----------|

------------------------------------------------------------------------------------------
7.Marooned On Piano Island

Intro

G------------------------------|
D------------------------------|  6x
E-555-7-5-555-55h7-555-7-5-555-|
A------------------------------|

G----------------      G--------------------------------|
D----------------  3x  D--------------------------------|
E----------------      E--------------------------------|
A-66-6-6-6-6-6-6h7     A-66-66666666-11-11-11-1313-1414-|

G---------------------------------|
D---------------------------------|
E-555-7-5-555-55h7-555-7-5-55-4---|  9x
A---------------------------------|

------------------------------------------------------------------------------------------
8.This Adultery Is Ripe

G--------------------------------|
D---------------------22-5555555-|
A-3-33-33-33-33-33-33------------|
E--------------------------------|

G--------------    G-----------  --------------    G---------------------|
D--------------    D-----------  --------------    D-----------22-55-222-|
A-3-33-3333-5-3 2x A-3-33-3-33-  3-33-3333-5-3- 3x A-33-333-333----------|
E--------------    E-----------  --------------    E---------------------|

G--------------     ----------------------------  -----------------------------------|
D--------------     ----------------------------  -----------------------------------|
A-33-333-0-1-2-3 8x 33-33-33-33-33-33-33-33-7777- -33-33555-33-33-33-3355-33-33-7777-|
E--------------     ----------------------------- -----------------------------------|

G----------                          G------------|
D----------                          D------------|
A-3-333-3-333 after every second one A-33-333-3h5-|
E----------                          E------------|

G------------------------------------------------|
D------------------------------------------------|  this part is kinda wierd so u hafta
A-33-3-3-3-3-3-3-3-3-3-3--3h5-333-333-333-333-3--|h5  actually listen to it to get the
E------------------------------------------------|     right timing.

------------------------------------------------------------------------------------------
9.Time For Tenderness

G--------------------------------------------------------|
D--------------------------------------------------------|
A555555555555555555555555555555555555555555555555555555--
e---------------------------------------------------------|
         3X-----------------------------------------------| on 4rth do the slide
G----------------------|----------------------------------|
D----------------------|----------------------------------|
A-77-666-6-6-6--3-3h5--|77-666-6-6-6-3-3h5/7/7------------|
E----------------------|----------------------------------|

G----------------------------|
D----------------------------|
A77777777777777--------------|
E---------------0-5h7--------|

G----------|
D----------|
A---789----|
E-0~---8~9-|

------------------------------------------------------------------------------------------
10.Jennifer

G--------------------------   G------------------------------------------| 4x
D--------------------------4x D------------------------------------------|
A-77777777-----------------   A-7777777/-10/-12-12-12-13-13-13--77777777-|
E----------66766-66766-----   E------------------------------------------|


G-------                   ---------------------|
D-------3X                 ---------------------|
A-55555-  after every      --55555-444----------|
E-------  third one do ->  ---------------------|

BREAK then...

G-------------------------|
D-------------------------| 2x
A-77777777777-------------|
E-------------88888888888-|


G-------------------------    G---------|
D------------------------- 4X D---------|
A-777-10-9-7-9-5-6--------    A--7---9X-|
E-------------------------    E---------|

THE END.
Comments