Blood Brothers - The Salesman Denver Max Chords & Tabs

 

The Salesman Denver Max Chords & Tabs

Blood Brothers Chords & Tabs

Version: 1 Type: Tab 0 ratings
1 star 2 stars 3 stars 4 stars 5 stars
comments

The Salesman Denver Max Tab

THE BLOOD BROTHERS
THE SALESMAN, DENVER MAX
ON THE ALBUM BURN, PIANO ISLAND, BURN

TUNING: EBGDAE

|---3--7~----|
|-3p5-5------|
|------------|
|------------|
|------------|
|------------|
[ Tab from: http://www.guitartabs.cc/tabs/b/blood_brothers/the_salesman_denver_max_tab.html ]
E |-----------------------------------|
B |-8---10----5s7---8--10-------------|
G |--9--9--7p9-------9--9--7----------|
D |-----7---------------7--7----------|
A |7---------------7-------5----------|
E |-----------------------------------|

|-------|
|-------|
|-------|
|2----5-|
|2----5-|
|0-x4-3|

|------------|
|------------|
|88888-88888-|
|88888-88888-|
|66666-66666-|
|------------|
Comments