Blood Brothers - Rats And Rats And Rats For Candy Chords & Tabs

 

Rats And Rats And Rats For Candy Chords & Tabs

Blood Brothers Chords & Tabs

Version: 2 Type: Tab 0 ratings
1 star 2 stars 3 stars 4 stars 5 stars
comments

Rats And Rats And Rats For Candy Tab

The Blood Brothers - Rats And Rats And Rats For Candy

it doesnt sound the same without the singing, but singing like this is hard
otherwise a pretty easy song
                                -Shane

Intro:
e|-------------------------------------------------------|
B|-------------------------------------------------------|
G|-------------------------------------------------------|
D|-------------------------------------------------------|
A|---7-x-7-x-7-x-7-x-7-x-7-x-7-x-7-x-7-x-7-x-7-x-7-x-7---|
E|-------------------------------------------------------|

e|--------------------------------------------------------------------------|
B|--------------------------------------------------------------------------|
G|--------------------------------------------------------------------------|x4
D|--------------------------------------------------------------------------|
A|--------------------------------------------------------------------------|
E|---0--3--5--6-6--0--6-6--0--6-6--0--6-6--0--6-6--0--6-6--0--6-6--0--6-6---|


Verse:
e|------5------0--3-1-0------0-------0-------------1-0---|
B|----6----1-3-------------1-------2-------------2-------|
G|--7--------------------2-------0-------------0---------|
D|-------------------------------------------------------|
A|-------------------------------------------------------|
E|-------------------------------------------------------|

e|---------0----------------0---------------0---------------0---------|
B|-------0---0---0--------0---0---0-------0---0---0-------0---0---0---|
G|-----0-------0--------0-------0-------0-------0-------0-------0-----|x2
D|---3----------------0---------------3---------------0---------------|
A|--------------------------------------------------------------------|
E|--------------------------------------------------------------------|


Bridge:
e|----5/4/3/2-2\~~12--12-12-12------5/4/3/2-2\~~7--7-6-5---|
B|----5/4/3/2-2\~~12--12-12-12------5/4/3/2-2\~~7--7-6-5---|
G|----5/4/3/2-2\~~12--12-12-12------5/4/3/2-2\~~7--7-6-5---|
D|----5/4/3/2-2\~~12--12-12-12------5/4/3/2-2\~~7--7-6-5---|
A|----5/4/3/2-2\~~12----------------5/4/3/2-2\~~7----------|
E|----3/2/1/0-0\~~10----------------3/2/1/0-0\~~5----------|

e|----5/4/3/2-2\~~12--12-11-10------5/4/3/2---|
B|----5/4/3/2-2\~~12--12-11-10------5/4/3/2---|
G|----5/4/3/2-2\~~12--12-11-10------5/4/3/2---|
D|----5/4/3/2-2\~~12--12-11-10------5/4/3/2---|
A|----5/4/3/2-2\~~12----------------5/4/3/2---|
E|----3/2/1/0-0\~~10----------------3/2/1/0---|

e|--------------------------------------------------------------------------|
B|--------------------------------------------------------------------------|
G|--------------------------------------------------------------------------|x4
D|--------------------------------------------------------------------------|
A|--------------------------------------------------------------------------|
E|---0--3--5--6-6--0--6-6--0--6-6--0--6-6--0--6-6--0--6-6--0--6-6--0--6-6---|

[ Tab from: http://www.guitartabs.cc/tabs/b/blood_brothers/rats_and_rats_and_rats_for_candy_tab_ver_2.html ]
Verse:                   
e|-------5------0--3-1-0------0--
B|-----6----1-3-------------1----
G|---7--------------------2------
D|-------------------------------
A|-------------------------------
E|-------------------------------

e|---------------------------------------------------------------------|
B|---------------------------------------------------------------------|
G|---x10101010101010-x-6-6-6-6-6-6-6-x10101010101010-x-5-5-5-5-5-5-5---|x2
D|---x-x-x-x-x-x-x-x-x-x-x-x-x-x-x-x-x-x-x-x-x-x-x-x-x-x-x-x-x-x-x-x---|
A|---x-8-8-8-8-8-8-8-x-4-4-4-4-4-4-4-x-8-8-8-8-8-8-8-x-3-3-3-3-3-3-3---|
E|---------------------------------------------------------------------|


Bridge:
e|----5/4/3/2-2\~~12--12-12-12------5/4/3/2-2\~~7--7-6-5---|
B|----5/4/3/2-2\~~12--12-12-12------5/4/3/2-2\~~7--7-6-5---|
G|----5/4/3/2-2\~~12--12-12-12------5/4/3/2-2\~~7--7-6-5---|
D|----5/4/3/2-2\~~12--12-12-12------5/4/3/2-2\~~7--7-6-5---|
A|----5/4/3/2-2\~~12----------------5/4/3/2-2\~~7----------|
E|----3/2/1/0-0\~~10----------------3/2/1/0-0\~~5----------|

e|----5/4/3/2-2\~~12--12-11-10------5/4/3/2---|
B|----5/4/3/2-2\~~12--12-11-10------5/4/3/2---|
G|----5/4/3/2-2\~~12--12-11-10------5/4/3/2---|
D|----5/4/3/2-2\~~12--12-11-10------5/4/3/2---|
A|----5/4/3/2-2\~~12----------------5/4/3/2---|
E|----3/2/1/0-0\~~10----------------3/2/1/0---|

e|--------------------------------------------------|
B|--------------------------------------------------|
G|--------------------------------------------------|x3
D|--------------------------------------------------|
A|-------~------------~------------~--------2~--2---|
E|---11b~--11-11--11b~--11-11--11b~--11-11--0~--0---|

e|---------------------------------|
B|---------------------------------|
G|---------------------------------|
D|---------------------------------|
A|-------~------------~--------2---|
E|---11b~--11-11--11b~--11-11--0---|


Verse:                   
e|-------5------0--3-1-0------0-------0-------------1-0---|
B|-----6----1-3-------------1-------2-------------2-------|
G|---7--------------------2-------0-------------0---------|x4
D|--------------------------------------------------------|
A|--------------------------------------------------------|
E|--------------------------------------------------------|

e|----------------------|
B|----------------------|
G|---x3x3x3x3x5555556---|
D|---xxxxxxxxxxxxxxxx---|
A|---x1x1x1x1x3333334---|
E|----------------------|
                   
e|-------5------0--3-1-0------0-------0-------------1-0---|
B|-----6----1-3-------------1-------2-------------2-------|
G|---7--------------------2-------0-------------0---------|x2
D|--------------------------------------------------------|
A|--------------------------------------------------------|
E|--------------------------------------------------------|


End:
e|----------------------------|
B|----------------------------|
G|---3--3--3--3--5--5--5--5---|x4
D|---x--x--x--x--x--x--x--x---|
A|---1--1--1--1--3--3--3--3---|
E|----------------------------|

e|--------------------------------------|
B|--------------------------------------|
G|---33333333333333335555555555555555---|x4
D|---xxxxxxxxxxxxxxxxxxxxxxxxxxxxxxxx---|
A|---11111111111111113333333333333333---|
E|--------------------------------------|
Comments