Blood Brothers - Rats And Rats And Rats For Candy Chords & Tabs

 

Rats And Rats And Rats For Candy Chords & Tabs

Blood Brothers Chords & Tabs

Version: 1 Type: Tab 0 ratings
1 star 2 stars 3 stars 4 stars 5 stars
comments

Rats And Rats And Rats For Candy Tab

-----------------------------------------------------------------------------
            Blood Brothers - Rats and Rats and Rats for Candy
-----------------------------------------------------------------------------

tuning: standard
tabbed by: stellar_legs
e-mail: uncle_stellar@hotmail.com

Great song. Easy, fun.

^ = bend
/ = slide

Intro
e---------------------------------------------------------------|
B---------------------------------------------------------------|
G---------------------------------------------------------------|
D---------------------------------------------------------------|
A----7-x-7-x-7-x-7-x-7------------------------------------------|
E------------------------0--3--5--6-6--0--6-6--0--6-6--0--6-6---|
Repeat until Verse

Verse
e--------5---------------3--1--0---------0---------0~-----------1--0--|
B-----6----------3--5-----------------1---------2------------2--------|
G--7----------5--------------------2---------0------------0-----------|
D---------------------------------------------------------------------|
A---------------------------------------------------------------------|
E---------------------------------------------------------------------|
[ Tab from: http://www.guitartabs.cc/tabs/b/blood_brothers/rats_and_rats_and_rats_for_candy_tab.html ]
e---------0----------------0---------------0---------------0---------|
B-------0---0---0--------0---0---0-------0---0---0-------0---0---0---|
G-----0-------0--------0-------0-------0-------0-------0-------0-----|
D---3----------------0---------------3---------------0---------------|
A--------------------------------------------------------------------|
E--------------------------------------------------------------------|
"These rats are not livin' inside my hotel face"

(distortion)
e---------------------------13-13-13---|
B---------------------------13-13-13---|
G---------------------------13-13-13---|
D--------------------------------------|
A--5-5-5---2-2-2-----------------------|
E--3-3-3---0-0-0---1///----------------|
"Our fur feels like its on fire!!!"
Repeat 4 times

Repeat Intro
Repeat Verse

e-----------------------------------------------------------------------|
B-----------------------------------------------------------------------|
G--10-10-10-10-10-10----6-6-6-6-6-6---10-10-10-10-10-10----5-5-5-5-5-5--|
D---x--x--x--x--x--x----x-x-x-x-x-x----x--x--x--x--x--x----x-x-x-x-x-x--|
A---8--8--8--8--8--8----4-4-4-4-4-4----8--8--8--8--8--8----3-3-3-3-3-3--|
E-----------------------------------------------------------------------|
"These rats are not livin, inside my hotel face."

"Breakdown"
(heavy distortion)
e-------------------------------------------------------------|
B-------------------------------------------------------------|
G-------------------------------------------------------------|
D-------------------------------------------------------------|
A-------------------------2-2-2------------------------2-2-2--|
E---6^--6--6^--6--6^--6---0-0-0---6^--6--6^--6--6^--6--0-0-0--|


The rest repeats itself

Fin.
Comments