Blood Brothers - March On Electric Children Chords & Tabs

 

March On Electric Children Chords & Tabs

Blood Brothers Chords & Tabs

Version: 1 Type: Bass Tab

March On Electric Children Bass Tab

   
Artist:	The Blood Brothers
Title:	March On Electric Children

#-----------------------------------PLEASE NOTE------------------------------------#
#  This file is the author's own work and represents their interpretation of the   #
#  song. The owner of this website has not reviewed the contents of this file and  #
#  does not support copyright infringement or violating the rights of any artist   #
#  or legal entity. If you feel that the content of this file may be violating     #
#  copyright law, you may not use the information displayed here in any way.       #
#----------------------------------------------------------------------------------#

The blood brothers-March on electric children

Intro(intro ends 0:53):

G -------------------------------|
D -------------------------------|
A -----------7777-----------7777-|
E 55-55-55-55----55-55-55-55-----|

In the middle of the intro

G -----------------------|
D -----------------------|
A -----------------------|
E 55-5-055-5-055-5-055-5-|

Verse:
[ Tab from: http://www.guitartabs.cc/tabs/b/blood_brothers/march_on_electric_children_btab.html ]
G -----------------------------|
D -----------------------------|
A -----------------------------|
E 5555557-555577778888-88887777

G ---------------------------------|
D ---------------------------------|
A ---------------------------------|
E 5555557-555577778888-101010108888

Bridge:

G -----------|
D -----------|
A 3-3--------|
E ---3-3-0-0-|

Come back in at 1:41

G --------------------------------------------------------------|
D ----------------------------------------------------------2-2-|
A 3-3------------3-3-3---0-0-----3-3-3-----------3-3-3----------|
E ---3-3-0-0-003------3-3----003------3-3-0-0-003------3-3-0----|

Prechorus:

G ---
D ---
A 7-7
E ---

Chorus:

G ---------------|
D ---------------|
A 7-7-56665665666
E ---------------    x3

Then

G -----------------|
D -----------------|
A --------88888888-|
E 66666666---------|

(2:40)
G ---------------|
D --------0000---|
A ------22----22-|
E 222222---------|

End:

G ------------------------|
D -------------------2-2--|
A 3-3----------3-3--------|
E ---3-3-0-0------3-3-----| x2