Blood Brothers - Love Rhymes With Hideous Car Wreck Chords & Tabs

 

Love Rhymes With Hideous Car Wreck Chords & Tabs

Blood Brothers Chords & Tabs

Version: 4 Type: Tab 0 ratings
1 star 2 stars 3 stars 4 stars 5 stars
comments

Love Rhymes With Hideous Car Wreck Tab

   
----------------------------------------------------------------------------         
Love Rhymes With Hideous Car Wreck - The Blood Brothers
----------------------------------------------------------------------------
Tabbed by:Chap Fowler
Email: Chapisbored@yahoo.com

i went and figured the song out and then i went online to check it out on ultimate-
guitar. it kind of bugged me that no one had already put these tabs on here. I feel
pretty confident that these tabs are correct.

Tuning:E A D G B E



e|-------------------------------------------------------------------------|
B|-------------------------------------------------------------------------|
G|-------------------------------------------------------------------------|
D|-13--13-13--13-12/-----5-x5-5-x5-5-x5-5-5\13--13-13--13/12---------------|
A|-x---x--x---x---x------x-xx-x-xx-x-xx-x-x-x---x--x---x--x----------------|
E|-11--11-11--11-10/-----3-x3-3-x3-3-x3-3-3\11--11-13--11/11---------------|


e|-------------------------------------------------------------------------|
B|-------------------------------------------------------------------------|
G|-------------------------------------------------------------------------|
D|-------------------------------------------------------------------------|
A|----------------------10-10----------------------10----------------------|
E|-11-11-11-11-11-11-10-------10-10-10-10-10-10-10----11-11-11-11-11-11-11-|

e|-------------------------------------------------------------------------|
B|-------------------------------------------------------------------------|
G|-------------------------------------------------------------------------|
D|-------------------------------------------------------------------------|
A|----10-10-10-10-10-10-10-10----------------------------------------------|
E|-10-------------------------10-------------------------------------------|
  Repeat 2x

(BASS ENTERS)

"you bid her farewell.."

e|-------------------------------------------------------------------------|
B|-------------------------------------------------------------------------|
G|----------------------12-12----------------------12----------------------|
D|-13-13-13-13-13-13-12-x--x--12-12-12-12-12-12-12-x--13-13-13-13-13-13-13-|
A|-x--x--x--x--x--x--x--10-10-x--x--x--x--x--x--x--10-x--x--x--x--x--x--x--|
E|-11-11-11-11-11-11-10-------10-10-10-10-10-10-10----11-11-11-11-11-11-11-|

e|-------------------------------------------------------------------------|
B|-------------------------------------------------------------------------|
G|----12-12-12-12-12-12-12-12----------------------------------------------|
D|-12-x--x--x--x--x--x--x--x-----------------------------------------------|
A|-x--10-10-10-10-10-10-10-10----------------------------------------------|
E|-10----------------------------------------------------------------------|
  Repeat 5x

"Love, love, love, love..."

e|-------------------------------------------------------------------------|
B|-------------------------------------------------------------------------|
G|-------------------------------------------------------------------------|
D|-------------------------------------------------------------------------|
A|-------------------------------------------------------------------------|
E|-11-x-11-11-x-11-10-x-10-10-x-10-8-x-8-8-x-8-6---11-x-11-11-x-11-10-x-10-|

e|-------------------------------------------------------------------------|
B|-------------------------------------------------------------------------|
G|-------------------------------------------------------------------------|
D|-------------------------------------------------------------------------|
A|-------------------------------------------------------------------------|
E|10-x-10-8-x-8-8-10-8-6-----6-6-8-10--------------------------------------|


"and jane let you touch her and feel her."
[ Tab from: http://www.guitartabs.cc/tabs/b/blood_brothers/love_rhymes_with_hideous_car_wreck_tab_ver_4.html ]
e|-------------------------------------------------------------------------|
B|-------------------------------------------------------------------------|
G|----------------------12-12----------------------12----------------------|
D|-13-13-13-13-13-13-12-x--x--12-12-12-12-12-12-12-x--13-13-13-13-13-13-13-|
A|-x--x--x--x--x--x--x--10-10-x--x--x--x--x--x--x--10-x--x--x--x--x--x--x--|
E|-11-11-11-11-11-11-10-------10-10-10-10-10-10-10----11-11-11-11-11-11-11-|

e|-------------------------------------------------------------------------|
B|-------------------------------------------------------------------------|
G|----12-12-12-12-12-12-12-12----------------------------------------------|
D|-12-x--x--x--x--x--x--x--x-----------------------------------------------|
A|-x--10-10-10-10-10-10-10-10----------------------------------------------|
E|-10----------------------------------------------------------------------|

(guitar pauses) (sound effects play)
Then  

e|-------------------------------------------------------------------------|
B|-------------------------------------------------------------------------|
G|-------------------------------------------------------------------------|
D|-------------------------------------------------------------------------|
A|-------------------------------------------------------------------------|
E|-10---10---10---10---10---10---10---10-----------------------------------|

  "Some things never get better.."

e|-------------------------------------------------------------------------|
B|-------------------------------------------------------------------------|
G|----------------------12-12----------------------12----------------------|
D|-13-13-13-13-13-13-12-x--x--12-12-12-12-12-12-12-x--13-13-13-13-13-13-13-|
A|-x--x--x--x--x--x--x--10-10-x--x--x--x--x--x--x--10-x--x--x--x--x--x--x--|
E|-11-11-11-11-11-11-10-------10-10-10-10-10-10-10----11-11-11-11-11-11-11-|

e|-------------------------------------------------------------------------|
B|-------------------------------------------------------------------------|
G|----12-12-12-12-12-12-12-12----------------------------------------------|
D|-12-x--x--x--x--x--x--x--x-----------------------------------------------|
A|-x--10-10-10-10-10-10-10-10----------------------------------------------|
E|-10----------------------------------------------------------------------|
  Repeat 2x

"Back at the hospital.."

e|-------------------------------------------------------------------------|
B|-------------------------------------------------------------------------|
G|-------------------------------------------------------------------------|
D|-------------------------------------------------------------------------|
A|-8--x-7-x-8--x-8--x-8--x-7-x-8--x-8--x-8--x-7-x-8--x-8--x-8--x-10-8------|
E|-10-x-8-x-10-x-10-x-10-x-8-x-10-x-10-x-10-x-8-x-10-x-10-x-10-x-12-10-----|

e|-------------------------------------------------------------------------|
B|-------------------------------------------------------------------------|
G|-------------------------------------------------------------------------|
D|-------------------------------------------------------------------------|
A|-8---7--8---8---8---7--8---8---8---7--8---8---8---10--8------------------|
E|-10--8--10--10--10--8--10--10--10--8--10--10--10--12--10-----------------|


At this part I know what Cody is playing but I don't know how he is doing it.

  "She met him a week after you left her.."  

e|-------------------------------------------------------------------------|
B|-------------------------------------------------------------------------|
G|-------------------------------------------------------------------------|
D|-17-5-5-4-4-4-19-7-7-7-8-8-8-5-5-5-5-7-5-4-4-4-4-5-4---------------------|
A|-x--x-x-x-x-x-x--x-x-x-x-x-x-x-x-x-x-x-x-x-x-x-x-x-x---------------------|
E|-15-3-3-2-2-2-17-5-5-5-6-6-6-3-3-3-3-5-3-2-2-2-2-3-2---------------------|
  repeat 4x's


   "love, love, love..."
  
e|-------------------------------------------------------------------------|
B|-------------------------------------------------------------------------|
G|-------------------------------------------------------------------------|
D|-------------------------------------------------------------------------|
A|-13-12-10-8--13-12-10-8--13-12-10-8-7-7-7-7-7-7-7-7----------------------|
E|-------------------------------------------------------------------------|
 

| /  slide up
| \  slide down
| h  hammer-on
| p  pull-off
| ~  vibrato
| +  harmonic
| x  Mute note
============================================================================
Comments